0
SECTION
2
HEADER
9
$INSUNITS
70
4
9
$ACADVER
1
AC1014
9
$HANDSEED
5
FFFF
0
ENDSEC
0
SECTION
2
TABLES
0
TABLE
2
VPORT
5
8
100
AcDbSymbolTable
0
ENDTAB
0
TABLE
2
LTYPE
5
5
100
AcDbSymbolTable
0
LTYPE
5
14
100
AcDbSymbolTableRecord
100
AcDbLinetypeTableRecord
2
BYBLOCK
70
0
0
LTYPE
5
15
100
AcDbSymbolTableRecord
100
AcDbLinetypeTableRecord
2
BYLAYER
70
0
0
ENDTAB
0
TABLE
2
LAYER
5
2
100
AcDbSymbolTable
70
2
0
LAYER
5
50
100
AcDbSymbolTableRecord
100
AcDbLayerTableRecord
2
0
70
0
6
CONTINUOUS
0
ENDTAB
0
TABLE
2
STYLE
5
3
100
AcDbSymbolTable
70
1
0
STYLE
5
11
100
AcDbSymbolTableRecord
100
AcDbTextStyleTableRecord
2
STANDARD
70
0
0
ENDTAB
0
TABLE
2
VIEW
5
6
100
AcDbSymbolTable
70
0
0
ENDTAB
0
TABLE
2
UCS
5
7
100
AcDbSymbolTable
70
0
0
ENDTAB
0
TABLE
2
APPID
5
9
100
AcDbSymbolTable
70
2
0
APPID
5
12
100
AcDbSymbolTableRecord
100
AcDbRegAppTableRecord
2
ACAD
70
0
0
ENDTAB
0
TABLE
2
DIMSTYLE
5
A
100
AcDbSymbolTable
70
1
0
ENDTAB
0
TABLE
2
BLOCK_RECORD
5
1
100
AcDbSymbolTable
70
1
0
BLOCK_RECORD
5
1F
100
AcDbSymbolTableRecord
100
AcDbBlockTableRecord
2
*MODEL_SPACE
0
BLOCK_RECORD
5
1B
100
AcDbSymbolTableRecord
100
AcDbBlockTableRecord
2
*PAPER_SPACE
0
ENDTAB
0
ENDSEC
0
SECTION
2
BLOCKS
0
BLOCK
5
20
100
AcDbEntity
100
AcDbBlockBegin
2
*MODEL_SPACE
0
ENDBLK
5
21
100
AcDbEntity
100
AcDbBlockEnd
0
BLOCK
5
1C
100
AcDbEntity
100
AcDbBlockBegin
2
*PAPER_SPACE
0
ENDBLK
5
1D
100
AcDbEntity
100
AcDbBlockEnd
0
ENDSEC
0
SECTION
2
ENTITIES
0
LWPOLYLINE
5
100
100
AcDbEntity
8
0
100
AcDbPolyline
90
36
70
1
43
0.0
10
48.575520878287755
20
-102.4824952458706
10
1.3290624283056478
20
-102.48249524587058
42
-0.19891236737966331
10
0.23304691746657683
20
-102.02851075670979
10
-1.0210151258901345
20
-100.77444871335304
42
-0.19891236737967993
10
-1.4749996150510007
20
-99.678433202513887
10
-1.4749996150509963
20
-0.33405728922712596
42
-0.19891236737965187
10
-1.0210151258901632
20
0.76195822161199245
10
0.23304691746641515
20
2.0160202649686165
42
-0.19891236737966192
10
1.3290624283055763
20
2.4700047541294885
10
120.7794094550576
20
2.4700047541294783
42
-0.1300854082646081
10
121.27406284582777
20
2.3390950963836961
42
0.26464926792870125
10
125.72594336275941
20
2.3390950963837072
42
-0.13008540826455672
10
126.22059675352959
20
2.4700047541294889
10
245.25440612172432
20
2.4700047541294845
42
-0.13008540826451473
10
245.74905951249445
20
2.3390950963837032
42
0.26464926792869259
10
250.20094002942599
20
2.3390950963836858
42
-0.13008540826459908
10
250.69559342019616
20
2.4700047541294881
10
370.14592297343648
20
2.4700047541294761
42
-0.19891239166588384
10
371.24193858669526
20
2.0160201625490748
10
372.49601561325881
20
0.76194290160552458
42
-0.19891234309356037
10
372.95000000000016
20
-0.33407250681401379
10
372.95000000000016
20
-99.678418002871737
42
-0.19891236737957929
10
372.49601551083913
20
-100.77443351371087
10
371.2419382678404
20
-102.02851075670979
42
-0.19891236737970844
10
370.14592275700124
20
-102.48249524587058
10
250.69557913177863
20
-102.48249524587067
42
-0.1300848256041254
10
250.20092773284202
20
-102.35158672179823
42
0.26464804173975931
10
245.74906514241172
20
-102.35158672179821
42
-0.13008482560407866
10
245.25441374347506
20
-102.4824952458706
10
199.07447912171247
20
-102.48249524587058
42
-0.10971564399876919
10
198.7569840179232
20
-102.4119780337835
10
191.01725486139176
20
-98.79551245795767
42
0.10971564399861572
10
190.69975975760258
20
-98.724995245870431
10
56.950240242397435
20
-98.724995245870531
42
0.10971564399865358
10
56.632745138608264
20
-98.795512457957642
10
48.893015982076939
20
-102.41197803378344
42
-0.10971564399865393
0
LWPOLYLINE
5
101
100
AcDbEntity
8
0
100
AcDbPolyline
90
4
70
1
43
0.0
10
3.1065964943241298
20
-99.6484332025139
42
0.99999999999999989
10
3.1065964943241209
20
-101.14843320251389
10
46.606596494324144
20
-101.14843320251387
42
0.99999999999999989
10
46.606596494324144
20
-99.648433202513885
0
LWPOLYLINE
5
102
100
AcDbEntity
8
0
100
AcDbPolyline
90
8
70
1
43
0.0
10
186.3120372075393
20
-96.198173181890652
42
0.45320794854872043
10
185.5684905986277
20
-95.349997622935263
10
62.075000000000031
20
-95.349997622935234
42
0.41421356237307078
10
61.325000000000038
20
-96.099997622935263
10
61.325047092871266
20
-96.100355449735432
42
0.41407382921297925
10
62.075047007511266
20
-96.849997622935291
10
185.57499999999999
20
-96.849997622935319
42
0.41421356237315748
10
186.32499999999999
20
-96.099997622935248
0
LWPOLYLINE
5
103
100
AcDbEntity
8
0
100
AcDbPolyline
90
4
70
1
43
0.0
10
234.10659649432407
20
-0.4284332025138633
42
0.99999999999999989
10
234.10659649432415
20
1.0715667974861351
10
190.60659649432412
20
1.0715667974861347
42
0.99999999999999989
10
190.60659649432421
20
-0.42843320251386202
0
LWPOLYLINE
5
104
100
AcDbEntity
8
0
100
AcDbPolyline
90
4
70
1
43
0.0
10
110.10659649432415
20
-0.42843320251386341
42
0.99999999999999989
10
110.10659649432415
20
1.0715667974861267
10
66.606596494324137
20
1.0715667974861176
42
0.99999999999999989
10
66.606596494324165
20
-0.42843320251386874
0
LWPOLYLINE
5
105
100
AcDbEntity
8
0
100
AcDbPolyline
90
4
70
1
43
0.0
10
57.106596494324151
20
1.0715667974861252
10
13.606596494324137
20
1.0715667974861272
42
0.99999999999999989
10
13.606596494324137
20
-0.42843320251386435
10
57.106596494324151
20
-0.42843320251386396
42
0.99999999999999989
0
LWPOLYLINE
5
106
100
AcDbEntity
8
0
100
AcDbPolyline
90
4
70
1
43
0.0
10
259.10659649432404
20
-101.14843320251396
10
302.60659649432409
20
-101.14843320251396
42
0.99999999999999989
10
302.60659649432409
20
-99.648433202513971
10
259.10659649432409
20
-99.648433202513971
42
0.99999999999999989
0
LWPOLYLINE
5
107
100
AcDbEntity
8
0
100
AcDbPolyline
90
4
70
1
43
0.0
10
137.60659649432412
20
1.071566797486122
42
0.99999999999999989
10
137.60659649432412
20
-0.42843320251387762
10
181.10659649432409
20
-0.42843320251382849
42
0.99999999999999989
10
181.10659649432418
20
1.0715667974861367
0
LWPOLYLINE
5
108
100
AcDbEntity
8
0
100
AcDbPolyline
90
4
70
1
43
0.0
10
305.10659649432409
20
-0.42843320251386341
42
0.99999999999999989
10
305.10659649432409
20
1.0715667974861267
10
261.60659649432421
20
1.0715667974861267
42
0.99999999999999989
10
261.60659649432421
20
-0.42843320251390016
0
LWPOLYLINE
5
109
100
AcDbEntity
8
0
100
AcDbPolyline
90
4
70
1
43
0.0
10
204.10659649432409
20
-99.648433202513928
42
0.99999999999999989
10
204.10659649432418
20
-101.14843320251396
10
240.10659649432412
20
-101.14843320251389
42
0.99999999999999989
10
240.10659649432421
20
-99.648433202513928
0
LWPOLYLINE
5
110
100
AcDbEntity
8
0
100
AcDbPolyline
90
4
70
1
43
0.0
10
314.60659649432421
20
-101.14843320251396
10
358.10659649432404
20
-101.14843320251389
42
0.99999999999999989
10
358.10659649432404
20
-99.648433202513928
10
314.60659649432415
20
-99.648433202513871
42
0.99999999999999989
0
LWPOLYLINE
5
111
100
AcDbEntity
8
0
100
AcDbPolyline
90
4
70
1
43
0.0
10
314.60659649432409
20
-0.4284332025138774
10
358.10659649432404
20
-0.42843320251386319
42
0.99999999999999989
10
358.10659649432404
20
1.0715667974861367
10
314.60659649432426
20
1.0715667974861574
42
0.99999999999999989
0
LWPOLYLINE
5
112
100
AcDbEntity
8
0
100
AcDbPolyline
90
8
70
1
43
0.0
10
243.03125
20
-60.425000000000004
10
243.03125
20
-72.925000000000026
42
0.4142135623730846
10
243.78125
20
-73.674999999999983
10
256.28125
20
-73.674999999999969
42
0.41421356237311585
10
257.03125
20
-72.925000000000026
10
257.03125
20
-60.425000000000004
42
0.41421356237303608
10
256.28125
20
-59.675000000000011
10
243.78125
20
-59.675000000000011
42
0.41421356237309503
0
LWPOLYLINE
5
113
100
AcDbEntity
8
0
100
AcDbPolyline
90
8
70
1
43
0.0
10
311.80000000000001
20
-72.925000000000026
10
311.80000000000001
20
-60.425000000000004
42
0.41421356237307771
10
311.05000000000007
20
-59.675000000000011
10
298.55000000000007
20
-59.675000000000011
42
0.41421356237309503
10
297.80000000000007
20
-60.425000000000004
10
297.80000000000007
20
-72.925000000000026
42
0.41421356237309159
10
298.55000000000007
20
-73.674999999999983
10
311.05000000000007
20
-73.674999999999983
42
0.41421356237309503
0
LWPOLYLINE
5
114
100
AcDbEntity
8
0
100
AcDbPolyline
90
8
70
1
43
0.0
10
354.94999999999999
20
-69.950000000000017
10
354.94999999999999
20
-82.450000000000031
42
0.41421356237308815
10
355.69999999999999
20
-83.200000000000045
10
368.19999999999999
20
-83.199999999999989
42
0.41421356237315055
10
368.94999999999993
20
-82.450000000000031
10
368.9500000000001
20
-69.950000000000017
42
0.41421356237307078
10
368.19999999999999
20
-69.199999999999989
10
355.69999999999999
20
-69.200000000000003
42
0.41421356237308815
0
LWPOLYLINE
5
115
100
AcDbEntity
8
0
100
AcDbPolyline
90
8
70
1
43
0.0
10
353.69999999999999
20
-60.762000000000057
42
0.41421356237311935
10
352.94999999999993
20
-61.512
10
352.9500000000001
20
-67.012
42
0.41421356237304652
10
353.69999999999999
20
-67.762000000000015
10
367.19999999999999
20
-67.762
42
0.41421356237310897
10
367.9500000000001
20
-67.012
10
367.9500000000001
20
-61.512
42
0.41421356237312623
10
367.19999999999999
20
-60.761999999999972
0
LWPOLYLINE
5
116
100
AcDbEntity
8
0
100
AcDbPolyline
90
8
70
1
43
0.0
10
353.69999999999999
20
-84.637999999999948
42
0.41421356237304652
10
352.9500000000001
20
-85.388000000000005
10
352.9500000000001
20
-90.888000000000005
42
0.41421356237303258
10
353.69999999999999
20
-91.638000000000019
10
367.19999999999999
20
-91.638000000000019
42
0.41421356237311585
10
367.9500000000001
20
-90.888000000000005
10
367.9500000000001
20
-85.388000000000005
42
0.41421356237312279
10
367.19999999999999
20
-84.637999999999977
0
LWPOLYLINE
5
117
100
AcDbEntity
8
0
100
AcDbPolyline
90
8
70
1
43
0.0
10
349.14999999999998
20
-73.675000000000011
42
0.41421356237310197
10
349.90000000000009
20
-72.925000000000026
10
349.90000000000009
20
-60.425000000000004
42
0.41421356237307078
10
349.14999999999998
20
-59.674999999999983
10
336.64999999999998
20
-59.674999999999997
42
0.41421356237308815
10
335.89999999999998
20
-60.425000000000004
10
335.89999999999998
20
-72.925000000000026
42
0.4142135623730846
10
336.64999999999998
20
-73.675000000000054
0
LWPOLYLINE
5
118
100
AcDbEntity
8
0
100
AcDbPolyline
90
8
70
1
43
0.0
10
330.10000000000002
20
-59.674999999999997
42
-0.41421356237303258
10
330.85000000000008
20
-60.425000000000004
10
330.85000000000002
20
-72.925000000000026
42
-0.41421356237300139
10
330.10000000000002
20
-73.67500000000004
10
317.60000000000002
20
-73.674999999999983
42
-0.41421356237306733
10
316.85000000000008
20
-72.925000000000026
10
316.85000000000014
20
-60.425000000000004
42
-0.41421356237303958
10
317.60000000000002
20
-59.675000000000004
0
LWPOLYLINE
5
119
100
AcDbEntity
8
0
100
AcDbPolyline
90
11
70
1
43
0.0
10
63.174999999999997
20
-78.47499999999998
10
63.174999999999997
20
-78.724999999999994
10
27.087500000000002
20
-78.724999999999994
42
0.41421356237309503
10
26.337499999999999
20
-79.47499999999998
10
26.337499999999999
20
-91.974999999999994
42
0.4142135623730846
10
27.087500000000002
20
-92.725000000000023
10
69.424999999999997
20
-92.724999999999966
42
0.41421356237308815
10
70.174999999999997
20
-91.974999999999994
10
70.174999999999997
20
-78.47499999999998
42
0.41421356237311241
10
69.424999999999997
20
-77.72499999999998
10
63.924999999999997
20
-77.72499999999998
42
0.41421356237308116
0
LWPOLYLINE
5
120
100
AcDbEntity
8
0
100
AcDbPolyline
90
8
70
1
43
0.0
10
4.9062499999999982
20
-79.47499999999998
10
4.9062500000000009
20
-91.974999999999994
42
0.41421356237308377
10
5.65625
20
-92.724999999999994
10
20.537500000000005
20
-92.725000000000009
42
0.41421356237309331
10
21.287500000000001
20
-91.974999999999994
10
21.287500000000005
20
-79.47499999999998
42
0.41421356237309853
10
20.537500000000005
20
-78.724999999999994
10
5.65625
20
-78.724999999999994
42
0.41421356237309936
0
LWPOLYLINE
5
121
100
AcDbEntity
8
0
100
AcDbPolyline
90
14
70
1
43
0.0
10
165.42500000000001
20
-78.47499999999998
42
0.41421356237311241
10
164.67500000000001
20
-77.725000000000023
10
149.61824999999999
20
-77.72499999999998
42
0.41421356237307771
10
148.86824999999999
20
-78.47499999999998
10
148.86824999999999
20
-91.974999999999994
42
0.41421356237308116
10
149.61824999999999
20
-92.724999999999994
10
183.72499999999997
20
-92.725000000000009
42
0.41421356237310197
10
184.47500000000002
20
-91.974999999999994
10
184.47500000000002
20
-78.47499999999998
42
0.41421356237307078
10
183.72499999999999
20
-77.725000000000023
10
173.49424999999999
20
-77.725000000000023
42
0.41421356237309503
10
172.74425000000005
20
-78.47499999999998
10
172.74425000000005
20
-78.725000000000023
10
165.42500000000001
20
-78.725000000000023
0
LWPOLYLINE
5
122
100
AcDbEntity
8
0
100
AcDbPolyline
90
8
70
1
43
0.0
10
116.82500000000003
20
-79.47499999999998
10
116.82500000000002
20
-91.974999999999994
42
0.41421356237308116
10
117.575
20
-92.724999999999994
10
141.98124999999999
20
-92.724999999999966
42
0.41421356237309503
10
142.73124999999999
20
-91.974999999999994
10
142.73124999999999
20
-79.47499999999998
42
0.41421356237309159
10
141.98124999999999
20
-78.725000000000023
10
117.575
20
-78.72499999999998
42
0.41421356237309503
0
LWPOLYLINE
5
123
100
AcDbEntity
8
0
100
AcDbPolyline
90
8
70
1
43
0.0
10
287.98750000000001
20
-77.6875
10
287.98750000000001
20
-65.1875
42
0.41421356237309503
10
287.23750000000001
20
-64.437500000000014
10
274.73750000000001
20
-64.437500000000014
42
0.41421356237309503
10
273.98750000000001
20
-65.1875
10
273.98750000000001
20
-77.6875
42
0.41421356237309503
10
274.73750000000001
20
-78.4375
10
287.23750000000001
20
-78.437500000000028
42
0.41421356237307771
0
LINE
5
124
100
AcDbEntity
8
0
100
AcDbLine
10
116.82500000000003
20
-79.47499999999998
30
0
11
116.82500000000003
21
-91.974999999999994
31
0
0
LWPOLYLINE
5
125
100
AcDbEntity
8
0
100
AcDbPolyline
90
14
70
1
43
0.0
10
77.468750000000014
20
-78.47499999999998
10
77.468750000000014
20
-91.97499999999998
42
0.41421356237307771
10
78.21875
20
-92.725000000000023
10
112.31925000000001
20
-92.724999999999994
42
0.41421356237308116
10
113.06925
20
-91.974999999999994
10
113.06925
20
-78.47499999999998
42
0.41421356237310897
10
112.31925000000001
20
-77.725000000000023
10
102.05674999999999
20
-77.725000000000023
42
0.41421356237310897
10
101.30674999999999
20
-78.47499999999998
10
101.30674999999999
20
-78.725000000000023
10
89.193250000000006
20
-78.725000000000023
10
89.193250000000006
20
-78.47499999999998
42
0.41421356237310897
10
88.443250000000006
20
-77.725000000000023
10
78.21875
20
-77.725000000000023
42
0.41421356237309159
0
ARC
5
126
100
AcDbEntity
8
0
100
AcDbCircle
10
117.575
20
-91.974999999999994
30
0
40
0.74999999999999289
210
0
220
0
230
1
100
AcDbArc
50
180
51
270
0
ARC
5
127
100
AcDbEntity
8
0
100
AcDbCircle
10
-117.575
20
-79.474999999999966
30
0
40
0.74999999999997513
210
-0
220
0
230
-1
100
AcDbArc
50
0
51
90
0
LWPOLYLINE
5
128
100
AcDbEntity
8
0
100
AcDbPolyline
90
8
70
1
43
0.0
10
317.60000000000002
20
-78.724999999999994
10
330.10000000000002
20
-78.724999999999966
42
-0.41421356237303608
10
330.85000000000008
20
-79.47499999999998
10
330.85000000000008
20
-91.974999999999994
42
-0.4142135623730257
10
330.10000000000002
20
-92.724999999999994
10
317.60000000000002
20
-92.724999999999994
42
-0.41421356237310897
10
316.85000000000008
20
-91.974999999999994
10
316.85000000000008
20
-79.47499999999998
42
-0.41421356237311241
0
LWPOLYLINE
5
129
100
AcDbEntity
8
0
100
AcDbPolyline
90
8
70
1
43
0.0
10
185.88125000000002
20
-79.47499999999998
10
185.88125000000002
20
-91.974999999999994
42
0.41421356237309503
10
186.63125000000002
20
-92.724999999999994
10
220.56250000000006
20
-92.724999999999994
42
0.41421356237310897
10
221.3125
20
-91.974999999999994
10
221.3125
20
-79.47499999999998
42
0.41421356237306733
10
220.56250000000006
20
-78.725000000000023
10
186.63125000000002
20
-78.724999999999994
42
0.41421356237309503
0
LWPOLYLINE
5
130
100
AcDbEntity
8
0
100
AcDbPolyline
90
8
70
1
43
0.0
10
268.9375
20
-84.237499999999983
42
0.41421356237311585
10
268.1875
20
-83.487500000000026
10
255.6875
20
-83.487500000000026
42
0.41421356237306733
10
254.93750000000006
20
-84.237499999999983
10
254.93750000000006
20
-96.737499999999997
42
0.41421356237310897
10
255.6875
20
-97.487500000000011
10
268.1875
20
-97.487500000000011
42
0.41421356237307422
10
268.9375
20
-96.737499999999997
0
LWPOLYLINE
5
131
100
AcDbEntity
8
0
100
AcDbPolyline
90
8
70
1
43
0.0
10
242.74375000000006
20
-91.974999999999994
10
242.74375000000006
20
-79.47499999999998
42
0.41421356237307078
10
241.99375000000003
20
-78.725000000000023
10
227.11250000000007
20
-78.725000000000009
42
0.41421356237312978
10
226.36250000000004
20
-79.47499999999998
10
226.36250000000004
20
-91.974999999999994
42
0.4142135623730534
10
227.11250000000007
20
-92.724999999999994
10
241.99375000000003
20
-92.724999999999966
42
0.41421356237312978
0
LWPOLYLINE
5
132
100
AcDbEntity
8
0
100
AcDbPolyline
90
8
70
1
43
0.0
10
293.03750000000002
20
-96.737499999999997
42
0.41421356237310197
10
293.78750000000002
20
-97.487500000000011
10
306.28750000000002
20
-97.487500000000011
42
0.41421356237307422
10
307.03750000000002
20
-96.737499999999997
10
307.03750000000002
20
-84.237499999999983
42
0.41421356237311585
10
306.28750000000002
20
-83.487500000000026
10
293.78750000000002
20
-83.487499999999983
42
0.41421356237309503
10
293.03750000000002
20
-84.237499999999983
0
LWPOLYLINE
5
133
100
AcDbEntity
8
0
100
AcDbPolyline
90
8
70
1
43
0.0
10
287.98750000000001
20
-96.737499999999997
10
287.98749999999995
20
-84.237499999999983
42
0.41421356237311585
10
287.23750000000001
20
-83.487500000000026
10
274.73750000000001
20
-83.487499999999983
42
0.41421356237309503
10
273.98750000000001
20
-84.237499999999983
10
273.98750000000001
20
-96.737499999999997
42
0.41421356237310197
10
274.73750000000001
20
-97.487500000000011
10
287.23750000000001
20
-97.487500000000011
42
0.41421356237307422
0
LWPOLYLINE
5
134
100
AcDbEntity
8
0
100
AcDbPolyline
90
8
70
1
43
0.0
10
349.90000000000009
20
-91.974999999999994
42
-0.41421356237299795
10
349.14999999999998
20
-92.724999999999994
10
336.64999999999998
20
-92.724999999999952
42
-0.41421356237312279
10
335.89999999999998
20
-91.974999999999994
10
335.89999999999998
20
-79.47499999999998
42
-0.41421356237308116
10
336.64999999999998
20
-78.724999999999994
10
349.14999999999998
20
-78.72499999999998
42
-0.41421356237311241
10
349.90000000000009
20
-79.47499999999998
0
LWPOLYLINE
5
135
100
AcDbEntity
8
0
100
AcDbPolyline
90
8
70
1
43
0.0
10
53.875
20
-16.524999999999991
42
0.41421356237309592
10
54.625
20
-15.775000000000004
10
54.625
20
-3.2750000000000012
42
0.41421356237309437
10
53.875
20
-2.524999999999999
10
41.375
20
-2.5250000000000057
42
0.41421356237309243
10
40.625
20
-3.2750000000000012
10
40.625
20
-15.775000000000004
42
0.41421356237310897
10
41.375
20
-16.525000000000002
0
LWPOLYLINE
5
136
100
AcDbEntity
8
0
100
AcDbPolyline
90
8
70
1
43
0.0
10
59.675000000000004
20
-3.2750000000000012
42
-0.41421356237308915
10
60.425000000000004
20
-2.5249999999999999
10
72.925000000000026
20
-2.5250000000000057
42
-0.41421356237309243
10
73.67500000000004
20
-3.2750000000000012
10
73.674999999999983
20
-15.775000000000004
42
-0.41421356237309936
10
72.925000000000026
20
-16.525000000000002
10
60.425000000000004
20
-16.525000000000006
42
-0.41421356237308815
10
59.675000000000004
20
-15.775000000000004
0
LWPOLYLINE
5
137
100
AcDbEntity
8
0
100
AcDbPolyline
90
8
70
1
43
0.0
10
116.82500000000003
20
-3.2750000000000012
10
116.82500000000003
20
-15.775000000000004
42
0.41421356237307422
10
117.575
20
-16.524999999999995
10
130.07499999999999
20
-16.525000000000002
42
0.41421356237308377
10
130.82499999999999
20
-15.775000000000004
10
130.82499999999999
20
-3.2750000000000012
42
0.41421356237309204
10
130.07499999999999
20
-2.5250000000000079
10
117.575
20
-2.5250000000000017
42
0.41421356237310458
0
LWPOLYLINE
5
138
100
AcDbEntity
8
0
100
AcDbPolyline
90
8
70
1
43
0.0
10
111.77500000000002
20
-3.2750000000000012
10
111.77500000000002
20
-15.775000000000004
42
-0.41421356237310281
10
111.02500000000001
20
-16.525000000000002
10
98.525000000000006
20
-16.525000000000002
42
-0.41421356237308982
10
97.775000000000034
20
-15.775000000000004
10
97.775000000000034
20
-3.2750000000000012
42
-0.41421356237310308
10
98.525000000000006
20
-2.5249999999999999
10
111.02500000000001
20
-2.5250000000000012
42
-0.4142135623731048
0
LWPOLYLINE
5
139
100
AcDbEntity
8
0
100
AcDbPolyline
90
8
70
1
43
0.0
10
149.875
20
-15.775000000000004
42
-0.41421356237308554
10
149.125
20
-16.525000000000002
10
136.625
20
-16.525000000000006
42
-0.41421356237310542
10
135.87500000000003
20
-15.775000000000004
10
135.87500000000003
20
-3.2750000000000012
42
-0.41421356237309614
10
136.625
20
-2.5249999999999999
10
149.125
20
-2.5249999999999995
42
-0.41421356237308443
10
149.875
20
-3.2750000000000012
0
LWPOLYLINE
5
140
100
AcDbEntity
8
0
100
AcDbPolyline
90
8
70
1
43
0.0
10
22.324999999999999
20
-16.525000000000002
10
34.825000000000003
20
-16.525000000000002
42
0.41421356237309853
10
35.57500000000001
20
-15.775000000000004
10
35.575000000000003
20
-3.2750000000000012
42
0.41421356237309137
10
34.825000000000003
20
-2.524999999999999
10
22.324999999999999
20
-2.5250000000000017
42
0.41421356237309592
10
21.575000000000003
20
-3.2750000000000012
10
21.575000000000006
20
-15.775000000000004
42
0.41421356237308815
0
LWPOLYLINE
5
141
100
AcDbEntity
8
0
100
AcDbPolyline
90
8
70
1
43
0.0
10
92.724999999999994
20
-3.2750000000000012
42
0.41421356237309204
10
91.974999999999994
20
-2.5250000000000079
10
79.47499999999998
20
-2.5249999999999932
42
0.41421356237309398
10
78.724999999999994
20
-3.2750000000000012
10
78.724999999999994
20
-15.775000000000004
42
0.41421356237309853
10
79.47499999999998
20
-16.525000000000002
10
91.97499999999998
20
-16.525000000000006
42
0.4142135623730846
10
92.724999999999994
20
-15.775000000000004
0
LWPOLYLINE
5
142
100
AcDbEntity
8
0
100
AcDbPolyline
90
8
70
1
43
0.0
10
2.5249999999999999
20
-3.2750000000000012
10
2.5249999999999999
20
-15.775000000000002
42
0.41421356237309548
10
3.2750000000000012
20
-16.525000000000002
10
15.775000000000004
20
-16.524999999999999
42
0.41421356237309331
10
16.525000000000002
20
-15.775000000000004
10
16.525000000000002
20
-3.2750000000000012
42
0.41421356237309243
10
15.775000000000004
20
-2.5250000000000004
10
3.2750000000000012
20
-2.5249999999999999
42
0.41421356237309465
0
LWPOLYLINE
5
143
100
AcDbEntity
8
0
100
AcDbPolyline
90
8
70
1
43
0.0
10
173.97500000000005
20
-15.775000000000004
42
0.41421356237307599
10
174.72499999999999
20
-16.524999999999995
10
187.22499999999999
20
-16.525000000000006
42
0.41421356237309853
10
187.97499999999999
20
-15.775000000000004
10
187.97499999999999
20
-3.2750000000000012
42
0.41421356237306639
10
187.22499999999999
20
-2.5250000000000079
10
174.72499999999999
20
-2.524999999999995
42
0.41421356237311391
10
173.97500000000005
20
-3.2750000000000012
0
LWPOLYLINE
5
144
100
AcDbEntity
8
0
100
AcDbPolyline
90
8
70
1
43
0.0
10
206.27500000000001
20
-16.525000000000002
10
193.77500000000001
20
-16.525000000000006
42
-0.41421356237311324
10
193.02500000000006
20
-15.775000000000004
10
193.02500000000003
20
-3.2750000000000012
42
-0.41421356237307749
10
193.77500000000001
20
-2.5249999999999999
10
206.27500000000001
20
-2.5250000000000048
42
-0.41421356237309631
10
207.02500000000001
20
-3.2750000000000012
10
207.02500000000001
20
-15.775000000000004
42
-0.41421356237306733
0
LWPOLYLINE
5
145
100
AcDbEntity
8
0
100
AcDbPolyline
90
20
70
1
43
0.0
10
251.262
20
-16.525000000000002
10
251.262
20
-17.774999999999999
42
0.41421356237309503
10
252.012
20
-18.524999999999991
10
257.512
20
-18.524999999999991
42
0.41421356237309503
10
258.262
20
-17.774999999999999
10
258.262
20
-16.525000000000002
10
275.13799999999998
20
-16.525000000000002
10
275.13799999999998
20
-17.774999999999999
42
0.41421356237309503
10
275.88799999999998
20
-18.524999999999991
10
281.38799999999998
20
-18.524999999999991
42
0.41421356237309503
10
282.13799999999998
20
-17.774999999999999
10
282.13799999999998
20
-16.524999999999999
10
282.47500000000002
20
-16.524999999999977
42
0.41421356237312978
10
283.22500000000002
20
-15.775000000000004
10
283.22500000000002
20
-3.2750000000000012
42
0.41421356237305518
10
282.47500000000002
20
-2.5250000000000079
10
250.92500000000001
20
-2.5250000000000083
42
0.41421356237309503
10
250.17500000000001
20
-3.2750000000000012
10
250.17500000000001
20
-15.775000000000004
42
0.41421356237309503
10
250.92500000000001
20
-16.524999999999995
0
LWPOLYLINE
5
146
100
AcDbEntity
8
0
100
AcDbPolyline
90
8
70
1
43
0.0
10
168.17500000000001
20
-2.5250000000000079
10
155.67500000000001
20
-2.5250000000000017
42
0.41421356237310442
10
154.92500000000004
20
-3.2750000000000012
10
154.92500000000004
20
-15.775000000000004
42
0.41421356237307422
10
155.67500000000001
20
-16.524999999999995
10
168.17500000000001
20
-16.524999999999995
42
0.4142135623730942
10
168.92500000000001
20
-15.775000000000004
10
168.92500000000001
20
-3.2750000000000012
42
0.41421356237309548
0
LWPOLYLINE
5
147
100
AcDbEntity
8
0
100
AcDbPolyline
90
8
70
1
43
0.0
10
212.82499999999999
20
-2.5250000000000083
42
0.41421356237309481
10
212.07499999999999
20
-3.2750000000000012
10
212.07499999999999
20
-15.775000000000004
42
0.41421356237309503
10
212.82499999999999
20
-16.524999999999995
10
225.32499999999999
20
-16.524999999999974
42
0.41421356237312801
10
226.07500000000002
20
-15.775000000000004
10
226.07500000000002
20
-3.2750000000000012
42
0.41421356237305518
10
225.32499999999999
20
-2.5250000000000079
0
LWPOLYLINE
5
148
100
AcDbEntity
8
0
100
AcDbPolyline
90
8
70
1
43
0.0
10
245.12500000000003
20
-15.775000000000004
10
245.12500000000003
20
-3.2750000000000012
42
0.41421356237305518
10
244.375
20
-2.5250000000000079
10
231.875
20
-2.5250000000000083
42
0.41421356237309503
10
231.125
20
-3.2750000000000012
10
231.125
20
-15.775000000000004
42
0.41421356237309503
10
231.875
20
-16.524999999999995
10
244.375
20
-16.524999999999974
42
0.41421356237312801
0
LWPOLYLINE
5
149
100
AcDbEntity
8
0
100
AcDbPolyline
90
8
70
1
43
0.0
10
316.85000000000008
20
-3.2750000000000012
10
316.85000000000002
20
-15.775000000000004
42
0.41421356237305518
10
317.60000000000002
20
-16.524999999999995
10
330.10000000000002
20
-16.52500000000002
42
0.41421356237303519
10
330.85000000000008
20
-15.775000000000004
10
330.85000000000002
20
-3.2750000000000012
42
0.41421356237306967
10
330.10000000000002
20
-2.5249999999999724
10
317.60000000000002
20
-2.524999999999995
42
0.41421356237311413
0
LWPOLYLINE
5
150
100
AcDbEntity
8
0
100
AcDbPolyline
90
8
70
1
43
0.0
10
20.537500000000005
20
-35.57500000000001
10
8.0374999999999979
20
-35.57500000000001
42
-0.41421356237308854
10
7.2874999999999988
20
-34.825000000000003
10
7.2874999999999979
20
-22.324999999999999
42
-0.41421356237309681
10
8.0374999999999996
20
-21.575000000000003
10
20.537500000000005
20
-21.575000000000006
42
-0.41421356237309853
10
21.287500000000005
20
-22.324999999999999
10
21.287500000000001
20
-34.825000000000003
42
-0.41421356237309503
0
LWPOLYLINE
5
151
100
AcDbEntity
8
0
100
AcDbPolyline
90
8
70
1
43
0.0
10
311.80000000000007
20
-15.775000000000004
42
-0.41421356237307683
10
311.05000000000007
20
-16.525000000000002
10
298.55000000000007
20
-16.524999999999999
42
-0.41421356237309592
10
297.80000000000007
20
-15.775000000000004
10
297.80000000000007
20
-3.2750000000000012
42
-0.41421356237306733
10
298.55000000000007
20
-2.5249999999999999
10
311.05000000000007
20
-2.524999999999995
42
-0.41421356237311391
10
311.80000000000001
20
-3.2750000000000012
0
LWPOLYLINE
5
152
100
AcDbEntity
8
0
100
AcDbPolyline
90
8
70
1
43
0.0
10
349.90000000000009
20
-3.2750000000000012
42
0.41421356237306994
10
349.14999999999998
20
-2.5249999999999724
10
336.64999999999998
20
-2.5249999999999839
42
0.41421356237309048
10
335.89999999999998
20
-3.2750000000000012
10
335.89999999999998
20
-15.775000000000004
42
0.41421356237308898
10
336.64999999999998
20
-16.525000000000034
10
349.14999999999998
20
-16.525000000000013
42
0.41421356237311585
10
349.90000000000009
20
-15.775000000000004
0
LWPOLYLINE
5
153
100
AcDbEntity
8
0
100
AcDbPolyline
90
8
70
1
43
0.0
10
368.19999999999999
20
-2.5249999999999906
42
-0.41421356237311563
10
368.9500000000001
20
-3.2750000000000012
10
368.9500000000001
20
-15.775000000000004
42
-0.414213562373004
10
368.19999999999999
20
-16.525000000000002
10
355.69999999999999
20
-16.524999999999952
42
-0.41421356237311935
10
354.94999999999999
20
-15.775000000000004
10
354.94999999999999
20
-3.2750000000000012
42
-0.41421356237308399
10
355.69999999999999
20
-2.5249999999999999
0
LWPOLYLINE
5
154
100
AcDbEntity
8
0
100
AcDbPolyline
90
37
70
1
43
0.0
10
265.21249999999998
20
-21.575000000000006
42
0.41421356237309503
10
264.46249999999998
20
-22.324999999999999
10
264.46249999999998
20
-34.825000000000003
42
0.414213562373069
10
265.21249999999998
20
-35.575000000000003
10
266.84375
20
-35.575000000000003
10
266.84375
20
-40.625
10
258.06875000000002
20
-40.624999999999986
10
246.16250000000002
20
-40.625
42
0.41421356237309503
10
245.41250000000002
20
-41.375
10
245.41250000000002
20
-53.875
42
0.41421356237309503
10
246.16250000000002
20
-54.625
10
248.88075000000003
20
-54.625
10
248.88075000000003
20
-55.875
42
0.41421356237307771
10
249.63075000000003
20
-56.625000000000021
10
255.13075000000001
20
-56.625000000000014
42
0.41421356237310897
10
255.88075000000003
20
-55.875
10
255.88075000000003
20
-54.624999999999993
10
258.06875000000002
20
-54.624999999999993
10
270.56875000000002
20
-54.625
10
272.75675000000001
20
-54.625
10
272.75675000000001
20
-55.875
42
0.41421356237309503
10
273.50675000000001
20
-56.625000000000007
10
279.00675000000001
20
-56.625000000000014
42
0.41421356237311585
10
279.75675000000001
20
-55.875
10
279.75675000000001
20
-54.625000000000014
10
280.09375
20
-54.625000000000014
42
0.41421356237307422
10
280.84375
20
-53.875000000000014
10
280.84375
20
-52.788000000000004
10
280.84375
20
-47.287999999999997
10
280.84375
20
-44.350000000000009
10
280.84375
20
-31.850000000000005
10
280.84375
20
-28.911999999999999
10
280.84375
20
-23.412000000000003
42
0.41421356237309503
10
280.09375
20
-22.661999999999999
10
278.46249999999998
20
-22.661999999999999
10
278.46249999999998
20
-22.324999999999999
42
0.41421356237308637
10
277.71249999999998
20
-21.57500000000001
0
LWPOLYLINE
5
155
100
AcDbEntity
8
0
100
AcDbPolyline
90
8
70
1
43
0.0
10
352.94999999999993
20
-47.287999999999997
10
352.9500000000001
20
-52.788000000000004
42
0.41421356237304652
10
353.69999999999999
20
-53.538000000000032
10
367.19999999999999
20
-53.538000000000004
42
0.41421356237311241
10
367.9500000000001
20
-52.788000000000004
10
367.9500000000001
20
-47.287999999999997
42
0.41421356237312623
10
367.19999999999999
20
-46.537999999999968
10
353.69999999999999
20
-46.537999999999982
42
0.41421356237308815
0
LWPOLYLINE
5
156
100
AcDbEntity
8
0
100
AcDbPolyline
90
8
70
1
43
0.0
10
22.918750000000006
20
-54.625
42
0.41421356237310719
10
23.668750000000006
20
-53.875
10
23.668749999999996
20
-41.375000000000014
42
0.41421356237310025
10
22.918750000000006
20
-40.625
10
5.65625
20
-40.625
42
0.41421356237310936
10
4.9062499999999982
20
-41.375
10
4.9062500000000044
20
-53.875
42
0.41421356237309287
10
5.65625
20
-54.625
0
LWPOLYLINE
5
157
100
AcDbEntity
8
0
100
AcDbPolyline
90
8
70
1
43
0.0
10
298.55000000000007
20
-35.575000000000003
42
-0.41421356237309681
10
297.80000000000007
20
-34.825000000000003
10
297.80000000000001
20
-22.324999999999999
42
-0.41421356237307422
10
298.55000000000007
20
-21.575000000000003
10
311.05000000000007
20
-21.574999999999996
42
-0.41421356237311241
10
311.80000000000001
20
-22.324999999999999
10
311.80000000000001
20
-34.825000000000003
42
-0.41421356237310897
10
311.05000000000007
20
-35.57500000000001
0
LWPOLYLINE
5
158
100
AcDbEntity
8
0
100
AcDbPolyline
90
8
70
1
43
0.0
10
349.90000000000009
20
-34.825000000000003
10
349.90000000000009
20
-22.324999999999999
42
0.41421356237307078
10
349.14999999999998
20
-21.574999999999967
10
336.64999999999998
20
-21.574999999999985
42
0.41421356237308982
10
335.89999999999998
20
-22.324999999999999
10
335.89999999999998
20
-34.825000000000003
42
0.41421356237308815
10
336.64999999999998
20
-35.575000000000031
10
349.14999999999998
20
-35.57500000000001
42
0.41421356237311413
0
LWPOLYLINE
5
159
100
AcDbEntity
8
0
100
AcDbPolyline
90
8
70
1
43
0.0
10
368.19999999999999
20
-45.100000000000023
42
0.41421356237311585
10
368.9500000000001
20
-44.350000000000016
10
368.9500000000001
20
-31.850000000000005
42
0.414213562373069
10
368.19999999999999
20
-31.099999999999977
10
355.69999999999999
20
-31.099999999999991
42
0.41421356237308982
10
354.94999999999999
20
-31.850000000000005
10
354.94999999999999
20
-44.350000000000016
42
0.4142135623730846
10
355.69999999999999
20
-45.100000000000044
0
LWPOLYLINE
5
160
100
AcDbEntity
8
0
100
AcDbPolyline
90
8
70
1
43
0.0
10
316.85000000000008
20
-34.825000000000003
42
0.41421356237303258
10
317.60000000000002
20
-35.575000000000003
10
330.10000000000002
20
-35.575000000000024
42
0.41421356237303608
10
330.85000000000008
20
-34.825000000000003
10
330.85000000000008
20
-22.324999999999999
42
0.41421356237303436
10
330.10000000000002
20
-21.574999999999967
10
317.60000000000002
20
-21.575000000000017
42
0.41421356237310542
10
316.85000000000008
20
-22.324999999999999
0
LWPOLYLINE
5
161
100
AcDbEntity
8
0
100
AcDbPolyline
90
8
70
1
43
0.0
10
353.69999999999999
20
-29.662000000000038
10
367.19999999999999
20
-29.662000000000003
42
0.41421356237311241
10
367.9500000000001
20
-28.911999999999999
10
367.9500000000001
20
-23.412000000000006
42
0.41421356237312801
10
367.19999999999999
20
-22.661999999999971
10
353.69999999999999
20
-22.661999999999995
42
0.41421356237308815
10
352.94999999999993
20
-23.412000000000006
10
352.94999999999993
20
-28.911999999999999
42
0.41421356237308982
0
LWPOLYLINE
5
162
100
AcDbEntity
8
0
100
AcDbPolyline
90
8
70
1
43
0.0
10
317.60000000000002
20
-54.625000000000021
42
-0.41421356237311935
10
316.85000000000008
20
-53.875
10
316.85000000000008
20
-41.375
42
-0.41421356237303608
10
317.60000000000002
20
-40.625
10
330.10000000000002
20
-40.624999999999986
42
-0.41421356237303608
10
330.85000000000008
20
-41.375
10
330.85000000000002
20
-53.875
42
-0.41421356237300139
10
330.10000000000002
20
-54.625
0
LWPOLYLINE
5
163
100
AcDbEntity
8
0
100
AcDbPolyline
90
8
70
1
43
0.0
10
311.05000000000007
20
-54.625
10
298.55000000000007
20
-54.625
42
-0.41421356237309853
10
297.80000000000007
20
-53.875
10
297.80000000000007
20
-41.375
42
-0.41421356237306733
10
298.55000000000007
20
-40.625
10
311.05000000000007
20
-40.624999999999986
42
-0.41421356237311935
10
311.80000000000001
20
-41.375
10
311.80000000000007
20
-53.875
42
-0.41421356237307771
0
LWPOLYLINE
5
164
100
AcDbEntity
8
0
100
AcDbPolyline
90
20
70
1
43
0.0
10
5.9932500000000051
20
-74.924999999999983
42
0.41421356237309243
10
6.7432500000000006
20
-75.674999999999983
10
12.243250000000003
20
-75.674999999999983
42
0.41421356237310897
10
12.993250000000005
20
-74.924999999999983
10
12.99325
20
-73.67500000000004
10
29.869250000000001
20
-73.67500000000004
10
29.869250000000008
20
-74.924999999999983
42
0.41421356237309681
10
30.619250000000005
20
-75.674999999999983
10
36.119250000000001
20
-75.674999999999983
42
0.41421356237309503
10
36.869250000000008
20
-74.924999999999983
10
36.869250000000008
20
-73.67500000000004
10
39.587500000000013
20
-73.674999999999983
42
0.41421356237308982
10
40.337500000000013
20
-72.925000000000026
10
40.337500000000013
20
-60.425000000000004
42
0.41421356237309503
10
39.587500000000013
20
-59.675000000000004
10
5.6562499999999982
20
-59.675000000000004
42
0.41421356237308854
10
4.9062499999999982
20
-60.425000000000004
10
4.9062500000000044
20
-72.925000000000026
42
0.41421356237309287
10
5.65625
20
-73.67500000000004
10
5.9932499999999997
20
-73.67500000000004
0
LWPOLYLINE
5
165
100
AcDbEntity
8
0
100
AcDbPolyline
90
8
70
1
43
0.0
10
336.64999999999998
20
-54.625000000000021
10
349.14999999999998
20
-54.625000000000021
42
0.41421356237311935
10
349.90000000000009
20
-53.875
10
349.90000000000009
20
-41.375
42
0.41421356237306733
10
349.14999999999998
20
-40.624999999999964
10
336.64999999999998
20
-40.625000000000057
42
0.41421356237311935
10
335.89999999999998
20
-41.375
10
335.89999999999998
20
-53.875
42
0.41421356237308815
0
LWPOLYLINE
5
166
100
AcDbEntity
8
0
100
AcDbPolyline
90
21
70
1
43
0.0
10
28.575000000000003
20
-19.799999999999997
10
28.575000000000003
20
-28.574999999999999
10
28.575000000000003
20
-37.349999999999987
42
0.41421356237308815
10
29.325000000000006
20
-38.099999999999987
10
33.337499999999956
20
-38.099999999999987
10
33.337499999999949
20
-56.399999999999991
42
0.41421356237308815
10
34.087499999999949
20
-57.149999999999991
10
42.862499999999955
20
-57.149999999999991
10
42.862499999999962
20
-75.449999999999989
42
0.41421356237308815
10
43.612499999999947
20
-76.199999999999989
10
232.61249999999995
20
-76.199999999999989
42
0.41421356237309853
10
233.36249999999995
20
-75.449999999999989
10
233.36250000000004
20
-57.149999999999999
10
242.13750000000005
20
-57.149999999999999
42
0.41421356237309853
10
242.88750000000005
20
-56.399999999999999
10
242.88750000000007
20
-38.099999999999994
10
256.42500000000007
20
-38.09999999999998
42
0.41421356237309331
10
257.17500000000007
20
-37.349999999999994
10
257.17500000000001
20
-19.799999999999994
42
0.41421356237309503
10
256.42500000000001
20
-19.049999999999997
10
29.32500000000001
20
-19.049999999999997
42
0.41421356237309243
0
ENDSEC
0
SECTION
2
OBJECTS
0
DICTIONARY
5
C
100
AcDbDictionary
3
ACAD_GROUP
350
D
3
ACAD_MLINESTYLE
350
17
0
DICTIONARY
5
D
100
AcDbDictionary
0
DICTIONARY
5
1A
330
C
100
AcDbDictionary
0
DICTIONARY
5
17
100
AcDbDictionary
0
ENDSEC
0
EOF
