0
SECTION
2
HEADER
9
$INSUNITS
70
4
9
$ACADVER
1
AC1014
9
$HANDSEED
5
FFFF
0
ENDSEC
0
SECTION
2
TABLES
0
TABLE
2
VPORT
5
8
100
AcDbSymbolTable
0
ENDTAB
0
TABLE
2
LTYPE
5
5
100
AcDbSymbolTable
0
LTYPE
5
14
100
AcDbSymbolTableRecord
100
AcDbLinetypeTableRecord
2
BYBLOCK
70
0
0
LTYPE
5
15
100
AcDbSymbolTableRecord
100
AcDbLinetypeTableRecord
2
BYLAYER
70
0
0
ENDTAB
0
TABLE
2
LAYER
5
2
100
AcDbSymbolTable
70
2
0
LAYER
5
50
100
AcDbSymbolTableRecord
100
AcDbLayerTableRecord
2
0
70
0
6
CONTINUOUS
0
ENDTAB
0
TABLE
2
STYLE
5
3
100
AcDbSymbolTable
70
1
0
STYLE
5
11
100
AcDbSymbolTableRecord
100
AcDbTextStyleTableRecord
2
STANDARD
70
0
0
ENDTAB
0
TABLE
2
VIEW
5
6
100
AcDbSymbolTable
70
0
0
ENDTAB
0
TABLE
2
UCS
5
7
100
AcDbSymbolTable
70
0
0
ENDTAB
0
TABLE
2
APPID
5
9
100
AcDbSymbolTable
70
2
0
APPID
5
12
100
AcDbSymbolTableRecord
100
AcDbRegAppTableRecord
2
ACAD
70
0
0
ENDTAB
0
TABLE
2
DIMSTYLE
5
A
100
AcDbSymbolTable
70
1
0
ENDTAB
0
TABLE
2
BLOCK_RECORD
5
1
100
AcDbSymbolTable
70
1
0
BLOCK_RECORD
5
1F
100
AcDbSymbolTableRecord
100
AcDbBlockTableRecord
2
*MODEL_SPACE
0
BLOCK_RECORD
5
1B
100
AcDbSymbolTableRecord
100
AcDbBlockTableRecord
2
*PAPER_SPACE
0
ENDTAB
0
ENDSEC
0
SECTION
2
BLOCKS
0
BLOCK
5
20
100
AcDbEntity
100
AcDbBlockBegin
2
*MODEL_SPACE
0
ENDBLK
5
21
100
AcDbEntity
100
AcDbBlockEnd
0
BLOCK
5
1C
100
AcDbEntity
100
AcDbBlockBegin
2
*PAPER_SPACE
0
ENDBLK
5
1D
100
AcDbEntity
100
AcDbBlockEnd
0
ENDSEC
0
SECTION
2
ENTITIES
0
LWPOLYLINE
5
100
100
AcDbEntity
8
0
100
AcDbPolyline
90
8
70
1
43
0.0
10
-182.75000000000003
20
-9.7983312606801753
42
0.4142135623731163
10
-182
20
-10.548331260680186
10
-169.5
20
-10.548331260680154
42
0.41421356237308982
10
-168.75
20
-9.7983312606801753
10
-168.75
20
2.7016687393198247
42
0.41421356237306667
10
-169.5
20
3.4516687393198202
10
-182
20
3.4516687393198087
42
0.41421356237304996
10
-182.75000000000003
20
2.7016687393198247
0
LWPOLYLINE
5
101
100
AcDbEntity
8
0
100
AcDbPolyline
90
8
70
1
43
0.0
10
-188.5
20
-10.54833126068017
42
0.41421356237309592
10
-187.75000000000003
20
-9.7983312606801753
10
-187.75000000000003
20
2.7016687393198247
42
0.41421356237309503
10
-188.5
20
3.4516687393198171
10
-201
20
3.4516687393198193
42
0.4142135623730957
10
-201.75
20
2.7016687393198247
10
-201.75
20
-9.7983312606801753
42
0.41421356237309631
10
-201
20
-10.54833126068017
0
LWPOLYLINE
5
102
100
AcDbEntity
8
0
100
AcDbPolyline
90
8
70
1
43
0.0
10
-46.000000000000021
20
22.451668739319825
10
-58.500000000000021
20
22.451668739319828
42
0.41421356237309503
10
-59.250000000000007
20
21.701668739319828
10
-59.250000000000007
20
9.2016687393198264
42
0.41421356237308943
10
-58.500000000000021
20
8.4516687393198211
10
-46.000000000000007
20
8.4516687393198282
42
0.41421356237310802
10
-45.25
20
9.2016687393198282
10
-45.25
20
21.701668739319828
42
0.41421356237309337
0
LWPOLYLINE
5
103
100
AcDbEntity
8
0
100
AcDbPolyline
90
8
70
1
43
0.0
10
-230.5
20
13.951668739319825
10
-230.49999999999997
20
26.451668739319825
42
0.41421356237315576
10
-231.25
20
27.201668739319853
10
-243.75
20
27.201668739319842
42
0.41421356237303608
10
-244.50000000000003
20
26.451668739319825
10
-244.50000000000006
20
13.951668739319825
42
0.41421356237314622
10
-243.75
20
13.201668739319851
10
-231.25
20
13.20166873931983
42
0.41421356237309592
0
LWPOLYLINE
5
104
100
AcDbEntity
8
0
100
AcDbPolyline
90
8
70
1
43
0.0
10
-78.25
20
9.2016687393198264
42
0.41421356237308771
10
-77.5
20
8.4516687393198247
10
-65
20
8.4516687393198247
42
0.41421356237309892
10
-64.25
20
9.2016687393198282
10
-64.250000000000014
20
21.701668739319828
42
0.41421356237309159
10
-65
20
22.451668739319839
10
-77.5
20
22.451668739319828
42
0.41421356237309503
10
-78.25
20
21.701668739319828
0
LWPOLYLINE
5
105
100
AcDbEntity
8
0
100
AcDbPolyline
90
8
70
1
43
0.0
10
-97.250000000000014
20
21.701668739319828
10
-97.250000000000014
20
9.2016687393198264
42
0.41421356237307644
10
-96.5
20
8.4516687393198264
10
-84
20
8.4516687393198211
42
0.41421356237312756
10
-83.250000000000014
20
9.2016687393198282
10
-83.250000000000014
20
21.701668739319828
42
0.4142135623730846
10
-84.000000000000043
20
22.451668739319828
10
-96.5
20
22.451668739319818
42
0.41421356237311413
0
LWPOLYLINE
5
106
100
AcDbEntity
8
0
100
AcDbPolyline
90
8
70
1
43
0.0
10
-116.25
20
21.701668739319828
10
-116.25
20
9.2016687393198264
42
0.41421356237308249
10
-115.5
20
8.4516687393198264
10
-103
20
8.4516687393198158
42
0.41421356237310247
10
-102.25000000000001
20
9.2016687393198282
10
-102.25000000000001
20
21.701668739319828
42
0.41421356237307422
10
-103
20
22.451668739319828
10
-115.5
20
22.451668739319828
42
0.4142135623730846
0
LWPOLYLINE
5
107
100
AcDbEntity
8
0
100
AcDbPolyline
90
8
70
1
43
0.0
10
-135.25
20
21.701668739319828
10
-135.25
20
9.2016687393198264
42
0.41421356237308249
10
-134.5
20
8.4516687393198264
10
-122.00000000000001
20
8.4516687393198335
42
0.41421356237311585
10
-121.25
20
9.2016687393198282
10
-121.25
20
21.701668739319828
42
0.41421356237310542
10
-122.00000000000001
20
22.451668739319828
10
-134.50000000000003
20
22.451668739319828
42
0.41421356237311935
0
LWPOLYLINE
5
108
100
AcDbEntity
8
0
100
AcDbPolyline
90
8
70
1
43
0.0
10
-154.25
20
21.701668739319828
10
-154.25
20
9.2016687393198264
42
0.41421356237308249
10
-153.5
20
8.4516687393198264
10
-141
20
8.4516687393198282
42
0.41421356237310414
10
-140.25000000000003
20
9.2016687393198282
10
-140.25000000000003
20
21.701668739319828
42
0.41421356237310542
10
-141
20
22.451668739319828
10
-153.5
20
22.451668739319828
42
0.4142135623730846
0
LWPOLYLINE
5
109
100
AcDbEntity
8
0
100
AcDbPolyline
90
8
70
1
43
0.0
10
-192.25
20
21.701668739319828
10
-192.25
20
9.2016687393198264
42
0.41421356237308815
10
-191.50000000000003
20
8.4516687393198335
10
-179.00000000000003
20
8.4516687393198424
42
0.41421356237304996
10
-178.25
20
9.2016687393198282
10
-178.25000000000003
20
21.701668739319828
42
0.41421356237306733
10
-179.00000000000003
20
22.451668739319825
10
-191.50000000000003
20
22.451668739319818
42
0.41421356237309337
0
LWPOLYLINE
5
110
100
AcDbEntity
8
0
100
AcDbPolyline
90
8
70
1
43
0.0
10
-215.25000000000009
20
22.451668739319814
42
0.41421356237306384
10
-216
20
21.701668739319828
10
-216
20
9.2016687393198264
42
0.4142135623731566
10
-215.25000000000009
20
8.4516687393198211
10
-202.75000000000009
20
8.4516687393198158
42
0.41421356237304691
10
-202.00000000000003
20
9.2016687393198282
10
-202.00000000000003
20
21.701668739319828
42
0.41421356237316442
10
-202.75000000000009
20
22.4516687393198
0
LWPOLYLINE
5
111
100
AcDbEntity
8
0
100
AcDbPolyline
90
8
70
1
43
0.0
10
-255
20
22.451668739319821
10
-267.5
20
22.451668739319814
42
0.41421356237304996
10
-268.25
20
21.701668739319828
10
-268.25000000000006
20
9.2016687393198264
42
0.41421356237314444
10
-267.5
20
8.4516687393198566
10
-255
20
8.4516687393198318
42
0.41421356237309592
10
-254.25
20
9.2016687393198282
10
-254.25
20
21.701668739319828
42
0.41421356237309337
0
LWPOLYLINE
5
112
100
AcDbEntity
8
0
100
AcDbPolyline
90
18
70
1
43
0.0
10
-244.50000000000003
20
-35.281022731308376
10
-244.50000000000006
20
-47.798331260680172
42
0.41421356237314705
10
-243.75
20
-48.548331260680158
10
-212.25
20
-48.548331260680172
42
0.41421356237307078
10
-211.50000000000009
20
-47.798331260680172
10
-211.50000000000006
20
-35.298331260680172
42
0.36913093817798082
10
-212.13322565713804
20
-34.557477865703135
42
-0.27878599653646347
10
-212.72672565713805
20
-34.057477865703078
42
0.32139339281103707
10
-213.43700000000001
20
-33.5483312606802
10
-218.68700000000004
20
-33.548331260680158
42
0.31783724519583112
10
-219.39410678118659
20
-34.048331260680357
42
-0.31783724519574802
10
-220.10121356237306
20
-34.548331260680158
10
-235.89878643762702
20
-34.548331260680087
42
-0.31783724519570483
10
-236.60589321881343
20
-34.0483312606803
42
0.31783724519579415
10
-237.31300000000002
20
-33.548331260680172
10
-242.56299999999999
20
-33.548331260680179
42
0.31783724519586076
10
-243.27010678118657
20
-34.048331260680328
42
-0.27646165866455419
10
-243.86360678118706
20
-34.539676995994327
42
0.37034554631445049
0
LWPOLYLINE
5
113
100
AcDbEntity
8
0
100
AcDbPolyline
90
30
70
1
43
0.0
10
-242.375
20
-29.548331260680175
10
-226.50000000000009
20
-29.548331260680186
42
0.41421356237304652
10
-225.75000000000003
20
-28.798331260680175
10
-225.75000000000003
20
-16.298331260680175
42
0.41421356237316442
10
-226.50000000000009
20
-15.548331260680206
10
-227.375
20
-15.548331260680165
42
-0.41421356237306556
10
-228.125
20
-14.798331260680175
10
-228.125
20
-11.298331260680177
42
-0.41421356237308815
10
-227.375
20
-10.548331260680184
10
-207.5
20
-10.54833126068017
42
0.41421356237309592
10
-206.75
20
-9.7983312606801753
10
-206.75
20
2.7016687393198247
42
0.41421356237309503
10
-207.5
20
3.4516687393198171
10
-209.64778643762699
20
3.4516687393199157
42
-0.31783724519572387
10
-210.35489321881343
20
3.9516687393196821
42
0.31783724519587847
10
-211.06200000000001
20
4.4516687393197989
10
-216.31200000000007
20
4.4516687393198398
42
0.31783724519576423
10
-217.01910678118651
20
3.9516687393196492
42
-0.31783724519579631
10
-217.726213562373
20
3.4516687393198469
10
-233.52378643762705
20
3.4516687393199086
42
-0.31783724519575318
10
-234.23089321881349
20
3.9516687393196954
42
0.3178372451958319
10
-234.93799999999999
20
4.4516687393198282
10
-240.18799999999999
20
4.4516687393198238
42
0.32139339281100182
10
-240.89827434286201
20
3.9425221342969214
42
-0.27878599653655539
10
-241.49177434286202
20
3.4425221342969721
42
0.36913093817799947
10
-242.12500000000009
20
2.7016687393198247
10
-242.12500000000009
20
-20.947117698307075
42
-0.31783724519577761
10
-242.62500000000003
20
-21.654224479493635
42
0.31783724519575535
10
-243.125
20
-22.361331260680171
10
-243.125
20
-28.798331260680175
42
0.41421356237307422
0
LWPOLYLINE
5
114
100
AcDbEntity
8
0
100
AcDbPolyline
90
8
70
1
43
0.0
10
-26.250000000000004
20
28.201668739319832
10
-26.249999999999996
20
40.701668739319828
42
0.41421356237310025
10
-27
20
41.451668739319842
10
-39.5
20
41.451668739319842
42
0.41421356237309159
10
-40.25
20
40.701668739319828
10
-40.25
20
28.201668739319832
42
0.41421356237309159
10
-39.5
20
27.451668739319825
10
-27
20
27.451668739319828
42
0.41421356237310025
0
LWPOLYLINE
5
115
100
AcDbEntity
8
0
100
AcDbPolyline
90
8
70
1
43
0.0
10
-164.75
20
41.451668739319835
10
-177.25
20
41.45166873931985
42
0.41421356237307771
10
-178
20
40.701668739319828
10
-178.00000000000009
20
28.201668739319832
42
0.41421356237311241
10
-177.25
20
27.451668739319857
10
-164.75
20
27.451668739319818
42
0.41421356237307599
10
-164.00000000000003
20
28.201668739319832
10
-164.00000000000003
20
40.701668739319828
42
0.41421356237309503
0
CIRCLE
5
116
100
AcDbEntity
8
0
100
AcDbCircle
10
-299.25
20
51.201668739319857
30
1.9193082323454287e-06
40
1.1499999999999799
210
0
220
0
230
1
0
CIRCLE
5
117
100
AcDbEntity
8
0
100
AcDbCircle
10
-9.5
20
51.201668739319857
30
1.919308161291156e-06
40
1.1499999999999999
210
0
220
0
230
1
0
CIRCLE
5
118
100
AcDbEntity
8
0
100
AcDbCircle
10
-106.083333333333
20
-53.548331260680172
30
1.919308161291156e-06
40
1.1499999999999999
210
0
220
0
230
1
0
CIRCLE
5
119
100
AcDbEntity
8
0
100
AcDbCircle
10
-202.66666666666706
20
51.201668739319857
30
1.919308161291156e-06
40
1.1499999999999799
210
0
220
0
230
1
0
CIRCLE
5
120
100
AcDbEntity
8
0
100
AcDbCircle
10
-299.25
20
-53.548331260680172
30
1.919308161291156e-06
40
1.1499999999999799
210
0
220
0
230
1
0
CIRCLE
5
121
100
AcDbEntity
8
0
100
AcDbCircle
10
-202.66666666666706
20
-53.548331260680172
30
1.919308161291156e-06
40
1.1499999999999799
210
0
220
0
230
1
0
CIRCLE
5
122
100
AcDbEntity
8
0
100
AcDbCircle
10
-9.5
20
-53.548331260680172
30
1.919308161291156e-06
40
1.1499999999999999
210
0
220
0
230
1
0
CIRCLE
5
123
100
AcDbEntity
8
0
100
AcDbCircle
10
-159.80556602806899
20
32.154116738659923
30
1.9193081236844419e-06
40
2.9999999999999898
210
0
220
0
230
1
0
LWPOLYLINE
5
124
100
AcDbEntity
8
0
100
AcDbPolyline
90
8
70
1
43
0.0
10
-73.500000000000014
20
-47.798331260680172
42
0.41421356237311241
10
-72.75
20
-48.548331260680172
10
-60.25
20
-48.548331260680186
42
0.41421356237309853
10
-59.5
20
-47.798331260680172
10
-59.5
20
-35.298331260680172
42
0.41421356237309503
10
-60.25
20
-34.548331260680172
10
-72.75
20
-34.548331260680172
42
0.41421356237309503
10
-73.5
20
-35.298331260680172
0
LWPOLYLINE
5
125
100
AcDbEntity
8
0
100
AcDbPolyline
90
8
70
1
43
0.0
10
-305.5
20
-15.548331260680161
42
0.41421356237307599
10
-306.25
20
-16.298331260680175
10
-306.25
20
-28.798331260680175
42
0.41421356237307422
10
-305.5
20
-29.548331260680175
10
-293
20
-29.548331260680154
42
0.41421356237308982
10
-292.25
20
-28.798331260680175
10
-292.25
20
-16.298331260680175
42
0.41421356237306733
10
-293
20
-15.548331260680179
0
LWPOLYLINE
5
126
100
AcDbEntity
8
0
100
AcDbPolyline
90
8
70
1
43
0.0
10
-150.5
20
3.4516687393198255
10
-163
20
3.451668739319838
42
0.41421356237307533
10
-163.75
20
2.7016687393198247
10
-163.75
20
-9.7983312606801753
42
0.41421356237306556
10
-163
20
-10.54833126068017
10
-150.5
20
-10.548331260680177
42
0.4142135623730846
10
-149.75
20
-9.7983312606801753
10
-149.75
20
2.7016687393198247
42
0.41421356237308266
0
LWPOLYLINE
5
127
100
AcDbEntity
8
0
100
AcDbPolyline
90
8
70
1
43
0.0
10
-144
20
3.4516687393198158
42
0.41421356237311519
10
-144.75
20
2.7016687393198247
10
-144.75000000000003
20
-9.7983312606801753
42
0.41421356237311191
10
-144
20
-10.548331260680172
10
-131.5
20
-10.548331260680177
42
0.41421356237307771
10
-130.75
20
-9.7983312606801753
10
-130.75
20
2.7016687393198247
42
0.41421356237308266
10
-131.5
20
3.4516687393198255
0
LWPOLYLINE
5
128
100
AcDbEntity
8
0
100
AcDbPolyline
90
8
70
1
43
0.0
10
-125
20
3.4516687393198406
42
0.41421356237308332
10
-125.75000000000001
20
2.7016687393198247
10
-125.75000000000003
20
-9.798331260680273
42
0.41421356237310247
10
-125
20
-10.54833126068017
10
-112.5
20
-10.548331260680289
42
0.41421356237310331
10
-111.75
20
-9.798331260680273
10
-111.75
20
2.7016687393198247
42
0.41421356237308266
10
-112.5
20
3.4516687393198255
0
LWPOLYLINE
5
129
100
AcDbEntity
8
0
100
AcDbPolyline
90
8
70
1
43
0.0
10
-106.00000000000001
20
3.4516687393198389
42
0.41421356237310331
10
-106.75
20
2.7016687393198247
10
-106.75
20
-9.798331260680273
42
0.41421356237309892
10
-106.00000000000001
20
-10.548331260680166
10
-93.5
20
-10.548331260680273
42
0.41421356237311846
10
-92.749999999999986
20
-9.798331260680273
10
-92.75
20
2.7016687393198247
42
0.41421356237308266
10
-93.5
20
3.4516687393198255
0
LWPOLYLINE
5
130
100
AcDbEntity
8
0
100
AcDbPolyline
90
8
70
1
43
0.0
10
-74.5
20
3.4516687393198184
10
-87.000000000000014
20
3.4516687393198202
42
0.4142135623731239
10
-87.750000000000043
20
2.7016687393198247
10
-87.75
20
-9.798331260680273
42
0.414213562373066
10
-87.000000000000014
20
-10.548331260680184
10
-74.5
20
-10.548331260680278
42
0.41421356237310719
10
-73.75
20
-9.798331260680273
10
-73.749999999999986
20
2.7016687393198247
42
0.41421356237309681
0
LWPOLYLINE
5
131
100
AcDbEntity
8
0
100
AcDbPolyline
90
8
70
1
43
0.0
10
-68
20
3.4516687393198291
42
0.41421356237309959
10
-68.75
20
2.7016687393198247
10
-68.75
20
-9.798331260680273
42
0.41421356237311063
10
-68
20
-10.548331260680168
10
-55.500000000000007
20
-10.548331260680277
42
0.41421356237308898
10
-54.750000000000021
20
-9.798331260680273
10
-54.750000000000028
20
2.7016687393198247
42
0.4142135623730992
10
-55.500000000000007
20
3.4516687393198326
0
LWPOLYLINE
5
132
100
AcDbEntity
8
0
100
AcDbPolyline
90
8
70
1
43
0.0
10
-36.5
20
3.4516687393198282
10
-49
20
3.4516687393198304
42
0.41421356237308266
10
-49.750000000000021
20
2.7016687393198247
10
-49.750000000000021
20
-9.798331260680273
42
0.41421356237309681
10
-49
20
-10.548331260680175
10
-36.5
20
-10.548331260680275
42
0.41421356237309115
10
-35.75
20
-9.798331260680273
10
-35.75
20
2.7016687393198247
42
0.41421356237310181
0
LWPOLYLINE
5
133
100
AcDbEntity
8
0
100
AcDbPolyline
90
8
70
1
43
0.0
10
-22.874999999999996
20
3.4516687393198286
42
0.41421356237309764
10
-23.625000000000004
20
2.7016687393198247
10
-23.625000000000004
20
-9.798331260680273
42
0.41421356237309809
10
-22.875
20
-10.548331260680175
10
-5.625
20
-10.548331260680275
42
0.41421356237309337
10
-4.8749999999999991
20
-9.798331260680273
10
-4.8750000000000009
20
2.7016687393198247
42
0.41421356237309337
10
-5.625
20
3.4516687393198282
0
LWPOLYLINE
5
134
100
AcDbEntity
8
0
100
AcDbPolyline
90
8
70
1
43
0.0
10
-15.750000000000002
20
-48.548331260680172
10
-3.25
20
-48.548331260680172
42
0.4142135623731083
10
-2.5000000000000044
20
-47.798331260680172
10
-2.4999999999999996
20
-35.298331260680172
42
0.41421356237309093
10
-3.2499999999999996
20
-34.548331260680172
10
-15.750000000000002
20
-34.548331260680172
42
0.41421356237310114
10
-16.5
20
-35.298331260680172
10
-16.500000000000007
20
-47.798331260680172
42
0.4142135623731098
0
LWPOLYLINE
5
135
100
AcDbEntity
8
0
100
AcDbPolyline
90
8
70
1
43
0.0
10
-35.5
20
-47.798331260680165
42
0.41421356237311063
10
-34.75
20
-48.548331260680172
10
-22.25
20
-48.548331260680172
42
0.41421356237309853
10
-21.500000000000004
20
-47.798331260680172
10
-21.500000000000004
20
-35.298331260680172
42
0.41421356237309503
10
-22.25
20
-34.548331260680165
10
-34.75
20
-34.548331260680165
42
0.41421356237310025
10
-35.5
20
-35.298331260680172
0
LWPOLYLINE
5
136
100
AcDbEntity
8
0
100
AcDbPolyline
90
8
70
1
43
0.0
10
-54.500000000000014
20
-47.798331260680172
42
0.41421356237311241
10
-53.75
20
-48.548331260680172
10
-41.25
20
-48.548331260680186
42
0.41421356237309853
10
-40.5
20
-47.798331260680172
10
-40.5
20
-35.298331260680172
42
0.41421356237309503
10
-41.25
20
-34.548331260680172
10
-53.75
20
-34.548331260680172
42
0.41421356237309503
10
-54.5
20
-35.298331260680172
0
LWPOLYLINE
5
137
100
AcDbEntity
8
0
100
AcDbPolyline
90
8
70
1
43
0.0
10
-186.125
20
41.451668739319835
10
-198.625
20
41.45166873931985
42
0.41421356237307771
10
-199.375
20
40.701668739319828
10
-199.37500000000003
20
28.201668739319832
42
0.41421356237308637
10
-198.625
20
27.451668739319839
10
-186.125
20
27.451668739319842
42
0.41421356237309337
10
-185.375
20
28.201668739319832
10
-185.375
20
40.701668739319828
42
0.41421356237307078
0
LWPOLYLINE
5
138
100
AcDbEntity
8
0
100
AcDbPolyline
90
8
70
1
43
0.0
10
-18.875
20
28.201668739319832
42
0.41421356237310197
10
-18.125
20
27.451668739319828
10
-5.625
20
27.451668739319828
42
0.41421356237309076
10
-4.8749999999999991
20
28.201668739319832
10
-4.8749999999999973
20
40.701668739319828
42
0.4142135623730781
10
-5.625
20
41.451668739319842
10
-18.125
20
41.451668739319842
42
0.41421356237307771
10
-18.875000000000004
20
40.701668739319828
0
LWPOLYLINE
5
139
100
AcDbEntity
8
0
100
AcDbPolyline
90
13
70
1
43
0.0
10
-55.457106783820748
20
26.951668731869209
42
0.3178372480960267
10
-54.750000000000021
20
26.451668724418731
10
-49.5
20
26.451668724418731
42
0.32370578022746677
10
-48.787732756331394
20
26.966774336242327
42
-0.26902255439733647
10
-48.225232756331422
20
27.466774343692872
42
0.35648320149329799
10
-47.625
20
28.201668739319832
10
-47.625
20
40.701668739319828
42
0.41421356237307078
10
-48.375
20
41.451668739319842
10
-60.875
20
41.451668739319842
42
0.41421356237309159
10
-61.625000000000021
20
40.701668739319828
10
-61.625000000000021
20
28.201668739319832
42
0.41421356237311063
10
-60.875
20
27.451668739319825
10
-56.164213567641497
20
27.451668739319835
42
-0.31783724809607727
0
LWPOLYLINE
5
140
100
AcDbEntity
8
0
100
AcDbPolyline
90
4
70
1
43
0.0
10
-84.061999999999998
20
26.451668739319825
10
-77.311999999999998
20
26.451668739319825
10
-77.311999999999998
20
40.451668739319828
10
-84.061999999999998
20
40.451668739319828
0
LWPOLYLINE
5
141
100
AcDbEntity
8
0
100
AcDbPolyline
90
13
70
1
43
0.0
10
-109.12500000000001
20
28.184922380646729
10
-109.12500000000001
20
40.701668739319828
42
-0.41421356237310897
10
-108.375
20
41.451668739319814
10
-86.375000000000028
20
41.45166873931985
42
-0.41421356237311935
10
-85.625000000000014
20
40.701668739319828
10
-85.625
20
28.201668739319832
42
-0.41421356237310542
10
-86.375000000000014
20
27.451668739319828
10
-100.42751001656001
20
27.451668739319828
42
0.31694813502697039
10
-101.1338053684423
20
26.953952063994521
42
-0.3167420086140032
10
-101.83953875708404
20
26.456235599204199
10
-107.183937643365
20
26.452231123788771
42
-0.31793406598746948
10
-107.89150694568157
20
26.951949826286882
42
0.27702604751450205
10
-108.48675714237899
20
27.443295559983362
42
-0.37105486915578867
0
LWPOLYLINE
5
142
100
AcDbEntity
8
0
100
AcDbPolyline
90
4
70
1
43
0.0
10
-124.81200000000001
20
26.451668739319825
10
-124.81200000000001
20
40.451668739319828
10
-131.56200000000001
20
40.451668739319828
10
-131.56200000000001
20
26.451668739319825
0
LWPOLYLINE
5
143
100
AcDbEntity
8
0
100
AcDbPolyline
90
8
70
1
43
0.0
10
-230.5
20
45.451668739319828
42
0.41421356237314017
10
-231.25
20
46.201668739319857
10
-243.75
20
46.201668739319814
42
0.41421356237304996
10
-244.50000000000003
20
45.451668739319828
10
-244.50000000000006
20
32.951668739319828
42
0.41421356237314705
10
-243.75
20
32.201668739319857
10
-231.25
20
32.201668739319842
42
0.41421356237309337
10
-230.5
20
32.951668739319828
0
LWPOLYLINE
5
144
100
AcDbEntity
8
0
100
AcDbPolyline
90
8
70
1
43
0.0
10
-224.75
20
46.20166873931985
42
0.41421356237310542
10
-225.5
20
45.451668739319828
10
-225.5
20
32.951668739319828
42
0.41421356237316964
10
-224.75
20
32.201668739319842
10
-212.25
20
32.201668739319828
42
0.41421356237309681
10
-211.50000000000009
20
32.951668739319828
10
-211.50000000000009
20
45.451668739319828
42
0.41421356237307771
10
-212.25
20
46.20166873931985
0
LWPOLYLINE
5
145
100
AcDbEntity
8
0
100
AcDbPolyline
90
8
70
1
43
0.0
10
-250.25000000000009
20
32.201668739319814
42
0.41421356237304818
10
-249.50000000000003
20
32.951668739319828
10
-249.50000000000003
20
45.451668739319828
42
0.41421356237313323
10
-250.25000000000009
20
46.20166873931985
10
-262.75
20
46.201668739319828
42
0.41421356237307078
10
-263.5
20
45.451668739319828
10
-263.5
20
32.951668739319828
42
0.41421356237306733
10
-262.75
20
32.201668739319828
0
LWPOLYLINE
5
146
100
AcDbEntity
8
0
100
AcDbPolyline
90
8
70
1
43
0.0
10
-292.25
20
28.201668739319832
10
-292.25
20
40.701668739319828
42
0.41421356237307078
10
-293
20
41.451668739319835
10
-305.5
20
41.45166873931985
42
0.41421356237307771
10
-306.25
20
40.701668739319828
10
-306.25000000000006
20
28.201668739319832
42
0.41421356237308637
10
-305.5
20
27.451668739319839
10
-293
20
27.451668739319842
42
0.41421356237309337
0
LWPOLYLINE
5
147
100
AcDbEntity
8
0
100
AcDbPolyline
90
8
70
1
43
0.0
10
-287.25000000000006
20
28.201668739319832
42
0.41421356237308637
10
-286.5
20
27.451668739319839
10
-274
20
27.451668739319842
42
0.41421356237309337
10
-273.25
20
28.201668739319832
10
-273.25
20
40.701668739319828
42
0.41421356237307078
10
-274
20
41.451668739319835
10
-286.5
20
41.45166873931985
42
0.41421356237307771
10
-287.25
20
40.701668739319828
0
LWPOLYLINE
5
148
100
AcDbEntity
8
0
100
AcDbPolyline
90
50
70
1
43
0.0
10
-308.75000000000006
20
-50.048331260680214
10
-308.75
20
46.701668739319828
42
-0.41421356237307549
10
-306.75
20
48.701668739319828
10
-306.16607978310003
20
48.701668739319516
42
0.36597738186305512
10
-303.20803989154973
20
51.201668739319786
42
-0.36597738186303036
10
-300.25
20
53.701668739319828
10
-298.25
20
53.701668739320155
42
-0.36597738186304635
10
-295.29196010844987
20
51.201668739319857
42
0.36597738186303486
10
-292.33392021690008
20
48.701668739319828
10
-209.58274644976601
20
48.70166873931985
42
0.36597738186305234
10
-206.62470655821687
20
51.201668739320006
42
-0.36597738186303586
10
-203.66666666666703
20
53.701668739319828
10
-201.666666666667
20
53.701668739320169
42
-0.36597738186305023
10
-198.70862677511684
20
51.201668739319871
42
0.36597738186303713
10
-195.75058688356705
20
48.701668739319821
10
-16.504315077217306
20
48.701668739319821
42
0.36597738186304324
10
-13.546275185667415
20
51.201668739319821
42
-0.36597738186304801
10
-10.588235294117601
20
53.70166873931985
10
-8.5043150772172638
20
53.701668739319864
42
-0.36597738186304041
10
-5.5462751856674437
20
51.201668739319857
42
0.36597738186304102
10
-2.5882352941176801
20
48.701668739319857
10
-2.0000000000000004
20
48.701668739319828
42
-0.41421356237309415
10
-2.7755575615628914e-15
20
46.701668739319828
10
6.106226635438361e-15
20
-50.048331260680179
42
-0.41421356237309537
10
-1.0000000000000004
20
-51.048331260680186
10
-2.5882352941176801
20
-51.048331260680222
42
0.36597738186303946
10
-5.5462751856674526
20
-53.548331260680186
42
-0.36597738186304135
10
-8.5043150772172726
20
-56.048331260680172
10
-10.499999999999998
20
-56.048331260680186
42
-0.36597738186304418
10
-13.458039891549788
20
-53.548331260680172
42
0.36597738186304546
10
-16.416079783099597
20
-51.048331260680172
10
-99.083333333333314
20
-51.048331260680186
42
0.36597738186304418
10
-102.04137322488319
20
-53.548331260680158
42
-0.36597738186304907
10
-104.99941311643299
20
-56.048331260680172
10
-107.083333333333
20
-56.048331260680584
42
-0.36597738186304579
10
-110.04137322488319
20
-53.548331260680214
42
0.36597738186304263
10
-112.99941311643302
20
-51.048331260680172
10
-195.66666666666706
20
-51.0483312606802
42
0.36597738186302836
10
-198.62470655821625
20
-53.54833126068015
42
-0.36597738186304429
10
-201.58274644976601
20
-56.048331260680172
10
-203.66666666666703
20
-56.048331260679525
42
-0.36597738186302237
10
-206.62470655821619
20
-53.548331260680214
42
0.36597738186305184
10
-209.58274644976601
20
-51.048331260680172
10
-292.33392021690008
20
-51.048331260680172
42
0.36597738186303297
10
-295.29196010845027
20
-53.548331260680122
42
-0.36597738186304812
10
-298.25
20
-56.048331260680193
10
-300.25
20
-56.048331260680627
42
-0.36597738186304607
10
-303.20803989155019
20
-53.548331260680229
42
0.36597738186305379
10
-306.16607978310003
20
-51.048331260680243
10
-307.75
20
-51.048331260680229
42
-0.41421356237310542
0
LWPOLYLINE
5
149
100
AcDbEntity
8
0
100
AcDbPolyline
90
4
70
1
43
0.0
10
-3.3754824611592804
20
21.701668739319828
10
-3.3754824611592804
20
9.2016687393198264
42
0.99999999999999989
10
-1.8754824611592795
20
9.2016687393198282
10
-1.8754824611592795
20
21.701668739319828
42
0.99999999999999989
0
LWPOLYLINE
5
150
100
AcDbEntity
8
0
100
AcDbPolyline
90
19
70
1
43
0.0
10
-6.1017256571380489
20
7.9608153443427296
42
-0.27878599653652714
10
-5.5082256571380519
20
8.4608153443426737
42
0.36913093817801013
10
-4.8750000000000009
20
9.2016687393198282
10
-4.875
20
21.701668739319825
42
0.41421356237309076
10
-5.625
20
22.451668739319828
10
-39.5
20
22.451668739319835
42
0.41421356237309681
10
-40.25
20
21.701668739319828
10
-40.25
20
9.2016687393198264
42
0.41421356237309115
10
-39.5
20
8.4516687393198247
10
-37.352213562373201
20
8.4516687393198602
42
-0.31783724519582568
10
-36.645106781186598
20
7.9516687393197287
42
0.31783724519582901
10
-35.938000000000002
20
7.45166873931983
10
-30.687999999999999
20
7.4516687393196293
42
0.31783724519582285
10
-29.980893218813385
20
7.9516687393197216
42
-0.31783724519581924
10
-29.2737864376268
20
8.4516687393198264
10
-13.476213562373101
20
8.4516687393198335
42
-0.31783724519579132
10
-12.769106781186537
20
7.9516687393198113
42
0.3178372451957705
10
-12.061999999999999
20
7.4516687393198282
10
-6.8119999999999923
20
7.4516687393199277
42
0.32139339281093326
0
LWPOLYLINE
5
151
100
AcDbEntity
8
0
100
AcDbPolyline
90
8
70
1
43
0.0
10
-172.5
20
8.4516687393198371
10
-160
20
8.4516687393198158
42
0.41421356237310281
10
-159.25
20
9.2016687393198282
10
-159.25
20
21.701668739319828
42
0.41421356237309159
10
-160
20
22.451668739319814
10
-172.5
20
22.451668739319821
42
0.41421356237309503
10
-173.25
20
21.701668739319828
10
-173.25000000000003
20
9.2016687393198264
42
0.41421356237316831
0
LWPOLYLINE
5
152
100
AcDbEntity
8
0
100
AcDbPolyline
90
8
70
1
43
0.0
10
-273.25
20
9.2016687393198282
10
-273.25
20
21.701668739319828
42
0.41421356237306733
10
-274
20
22.451668739319825
10
-286.5
20
22.451668739319818
42
0.41421356237309337
10
-287.25
20
21.701668739319828
10
-287.25
20
9.2016687393198264
42
0.41421356237308815
10
-286.5
20
8.4516687393198335
10
-274
20
8.4516687393198477
42
0.41421356237309026
0
LWPOLYLINE
5
153
100
AcDbEntity
8
0
100
AcDbPolyline
90
8
70
1
43
0.0
10
-293
20
8.4516687393198477
42
0.41421356237308982
10
-292.25
20
9.2016687393198282
10
-292.25
20
21.701668739319828
42
0.41421356237306733
10
-293
20
22.451668739319825
10
-305.5
20
22.451668739319818
42
0.41421356237309337
10
-306.25
20
21.701668739319828
10
-306.25
20
9.2016687393198264
42
0.41421356237308815
10
-305.5
20
8.4516687393198335
0
LWPOLYLINE
5
154
100
AcDbEntity
8
0
100
AcDbPolyline
90
8
70
1
43
0.0
10
-21.25
20
-28.798331260680271
42
0.41421356237309503
10
-20.500000000000004
20
-29.548331260680172
10
-8.0000000000000089
20
-29.548331260680278
42
0.41421356237308943
10
-7.2500000000000018
20
-28.798331260680271
10
-7.2500000000000036
20
-16.298331260680175
42
0.41421356237309936
10
-8
20
-15.548331260680172
10
-20.500000000000007
20
-15.548331260680172
42
0.41421356237309592
10
-21.25
20
-16.298331260680175
0
LWPOLYLINE
5
155
100
AcDbEntity
8
0
100
AcDbPolyline
90
8
70
1
43
0.0
10
-206.50000000000009
20
-35.298331260680172
10
-206.50000000000009
20
-47.798331260680172
42
0.41421356237311585
10
-205.75000000000003
20
-48.548331260680158
10
-193.25000000000003
20
-48.548331260680186
42
0.41421356237303258
10
-192.5
20
-47.798331260680172
10
-192.50000000000003
20
-35.298331260680172
42
0.41421356237309503
10
-193.25000000000003
20
-34.548331260680172
10
-205.75000000000003
20
-34.548331260680186
42
0.41421356237309159
0
LWPOLYLINE
5
156
100
AcDbEntity
8
0
100
AcDbPolyline
90
8
70
1
43
0.0
10
-186.75
20
-34.548331260680186
42
0.41421356237309337
10
-187.5
20
-35.298331260680172
10
-187.5
20
-47.798331260680172
42
0.41421356237306733
10
-186.75
20
-48.548331260680172
10
-174.25
20
-48.548331260680193
42
0.41421356237307771
10
-173.5
20
-47.798331260680172
10
-173.5
20
-35.298331260680172
42
0.414213562373069
10
-174.25
20
-34.548331260680172
0
LWPOLYLINE
5
157
100
AcDbEntity
8
0
100
AcDbPolyline
90
8
70
1
43
0.0
10
-168.5
20
-47.798331260680172
42
0.41421356237306733
10
-167.75000000000003
20
-48.548331260680172
10
-155.25000000000003
20
-48.548331260680172
42
0.41421356237310542
10
-154.50000000000003
20
-47.798331260680172
10
-154.5
20
-35.298331260680172
42
0.4142135623730846
10
-155.25000000000003
20
-34.548331260680172
10
-167.75000000000003
20
-34.548331260680186
42
0.41421356237309337
10
-168.5
20
-35.298331260680172
0
LWPOLYLINE
5
158
100
AcDbEntity
8
0
100
AcDbPolyline
90
8
70
1
43
0.0
10
-149.5
20
-47.798331260680172
42
0.41421356237309159
10
-148.75
20
-48.548331260680172
10
-136.25
20
-48.548331260680186
42
0.41421356237308815
10
-135.5
20
-47.798331260680172
10
-135.5
20
-35.298331260680172
42
0.41421356237307422
10
-136.25
20
-34.548331260680172
10
-148.75
20
-34.548331260680158
42
0.41421356237308293
10
-149.5
20
-35.298331260680172
0
LWPOLYLINE
5
159
100
AcDbEntity
8
0
100
AcDbPolyline
90
8
70
1
43
0.0
10
-130.5
20
-35.298331260680172
10
-130.5
20
-47.798331260680172
42
0.41421356237307771
10
-129.75
20
-48.548331260680186
10
-117.25000000000001
20
-48.548331260680172
42
0.4142135623730846
10
-116.50000000000006
20
-47.798331260680172
10
-116.50000000000006
20
-35.298331260680172
42
0.4142135623730846
10
-117.25000000000001
20
-34.548331260680172
10
-129.75
20
-34.548331260680172
42
0.4142135623730846
0
LWPOLYLINE
5
160
100
AcDbEntity
8
0
100
AcDbPolyline
90
8
70
1
43
0.0
10
-111.49999999999999
20
-47.798331260680172
42
0.41421356237307771
10
-110.75000000000001
20
-48.548331260680186
10
-98.250000000000014
20
-48.548331260680165
42
0.41421356237311585
10
-97.5
20
-47.798331260680172
10
-97.5
20
-35.298331260680172
42
0.41421356237313323
10
-98.250000000000043
20
-34.548331260680172
10
-110.75
20
-34.548331260680172
42
0.41421356237312623
10
-111.5
20
-35.298331260680172
0
LWPOLYLINE
5
161
100
AcDbEntity
8
0
100
AcDbPolyline
90
8
70
1
43
0.0
10
-267.5
20
-48.548331260680158
10
-255
20
-48.548331260680172
42
0.41421356237309853
10
-254.25
20
-47.798331260680172
10
-254.25
20
-35.298331260680172
42
0.41421356237309503
10
-255
20
-34.548331260680172
10
-267.5
20
-34.548331260680186
42
0.41421356237304996
10
-268.25
20
-35.298331260680172
10
-268.25000000000006
20
-47.798331260680172
42
0.41421356237314705
0
LWPOLYLINE
5
162
100
AcDbEntity
8
0
100
AcDbPolyline
90
8
70
1
43
0.0
10
-292.25
20
-9.7983312606801753
10
-292.25
20
2.7016687393198247
42
0.41421356237306667
10
-293
20
3.4516687393198202
10
-305.5
20
3.451668739319838
42
0.41421356237307533
10
-306.25
20
2.7016687393198247
10
-306.25
20
-9.7983312606801753
42
0.41421356237306556
10
-305.5
20
-10.54833126068017
10
-293
20
-10.548331260680154
42
0.41421356237308982
0
LWPOLYLINE
5
163
100
AcDbEntity
8
0
100
AcDbPolyline
90
8
70
1
43
0.0
10
-273.25
20
2.7016687393198247
42
0.41421356237306667
10
-274
20
3.4516687393198202
10
-286.5
20
3.451668739319838
42
0.41421356237307533
10
-287.25
20
2.7016687393198247
10
-287.25
20
-9.7983312606801753
42
0.41421356237306556
10
-286.5
20
-10.54833126068017
10
-274
20
-10.548331260680154
42
0.41421356237308982
10
-273.25
20
-9.7983312606801753
0
LWPOLYLINE
5
164
100
AcDbEntity
8
0
100
AcDbPolyline
90
8
70
1
43
0.0
10
-254.25
20
-9.7983312606801753
10
-254.25
20
2.7016687393198247
42
0.41421356237309503
10
-255
20
3.4516687393198171
10
-267.5
20
3.4516687393198087
42
0.41421356237304996
10
-268.25
20
2.7016687393198247
10
-268.25000000000006
20
-9.7983312606801753
42
0.41421356237314577
10
-267.5
20
-10.54833126068015
10
-255
20
-10.54833126068017
42
0.41421356237309592
0
LWPOLYLINE
5
165
100
AcDbEntity
8
0
100
AcDbPolyline
90
8
70
1
43
0.0
10
-287.25
20
-47.798331260680186
42
0.41421356237307078
10
-286.5
20
-48.548331260680186
10
-274
20
-48.548331260680193
42
0.41421356237307771
10
-273.25
20
-47.798331260680172
10
-273.25
20
-35.298331260680172
42
0.414213562373069
10
-274
20
-34.548331260680172
10
-286.5
20
-34.548331260680186
42
0.41421356237309337
10
-287.25
20
-35.298331260680172
0
LWPOLYLINE
5
166
100
AcDbEntity
8
0
100
AcDbPolyline
90
8
70
1
43
0.0
10
-292.25
20
-47.798331260680172
10
-292.25
20
-35.298331260680172
42
0.414213562373069
10
-293
20
-34.548331260680172
10
-305.5
20
-34.548331260680186
42
0.41421356237309337
10
-306.25
20
-35.298331260680172
10
-306.25
20
-47.798331260680172
42
0.41421356237306733
10
-305.5
20
-48.548331260680172
10
-293
20
-48.548331260680193
42
0.41421356237307771
0
LWPOLYLINE
5
167
100
AcDbEntity
8
0
100
AcDbPolyline
90
8
70
1
43
0.0
10
-146.375
20
41.45166873931985
42
0.41421356237312623
10
-147.125
20
40.701668739319828
10
-147.12500000000003
20
28.201668739319832
42
0.41421356237308116
10
-146.375
20
27.451668739319828
10
-133.875
20
27.451668739319842
42
0.41421356237311413
10
-133.125
20
28.201668739319832
10
-133.12500000000003
20
40.701668739319828
42
0.41421356237309853
10
-133.875
20
41.451668739319835
0
LWPOLYLINE
5
168
100
AcDbEntity
8
0
100
AcDbPolyline
90
4
70
1
43
0.0
10
-148.68799999999999
20
40.451668739319722
10
-155.5
20
40.451668739319722
10
-155.5
20
26.451668739319825
10
-148.68799999999999
20
26.451668739319825
0
LWPOLYLINE
5
169
100
AcDbEntity
8
0
100
AcDbPolyline
90
8
70
1
43
0.0
10
-45
20
-16.298331260680175
10
-45
20
-28.798331260680271
42
0.41421356237309159
10
-44.25
20
-29.548331260680172
10
-31.750000000000011
20
-29.548331260680278
42
0.41421356237308637
10
-31
20
-28.798331260680271
10
-30.999999999999996
20
-16.298331260680175
42
0.41421356237310025
10
-31.750000000000011
20
-15.548331260680177
10
-44.25
20
-15.548331260680175
42
0.41421356237309503
0
LWPOLYLINE
5
170
100
AcDbEntity
8
0
100
AcDbPolyline
90
8
70
1
43
0.0
10
-63.25
20
-15.548331260680175
42
0.41421356237309503
10
-64
20
-16.298331260680175
10
-64
20
-28.798331260680271
42
0.41421356237309159
10
-63.25
20
-29.548331260680172
10
-50.75
20
-29.548331260680278
42
0.41421356237310375
10
-50
20
-28.798331260680271
10
-50
20
-16.298331260680175
42
0.41421356237310897
10
-50.75
20
-15.548331260680177
0
LWPOLYLINE
5
171
100
AcDbEntity
8
0
100
AcDbPolyline
90
8
70
1
43
0.0
10
-83
20
-16.298331260680175
10
-83
20
-28.798331260680175
42
0.41421356237310375
10
-82.25
20
-29.548331260680172
10
-69.75
20
-29.548331260680175
42
0.41421356237311585
10
-69
20
-28.798331260680175
10
-69
20
-16.298331260680175
42
0.41421356237310897
10
-69.75
20
-15.548331260680177
10
-82.25
20
-15.548331260680184
42
0.41421356237311585
0
LWPOLYLINE
5
172
100
AcDbEntity
8
0
100
AcDbPolyline
90
8
70
1
43
0.0
10
-102
20
-28.798331260680175
42
0.41421356237309337
10
-101.25
20
-29.548331260680172
10
-88.75
20
-29.548331260680165
42
0.41421356237309337
10
-88
20
-28.798331260680175
10
-88
20
-16.298331260680175
42
0.41421356237308293
10
-88.75
20
-15.548331260680177
10
-101.25
20
-15.548331260680158
42
0.4142135623730846
10
-102.00000000000001
20
-16.298331260680175
0
LWPOLYLINE
5
173
100
AcDbEntity
8
0
100
AcDbPolyline
90
8
70
1
43
0.0
10
-121.00000000000001
20
-16.298331260680175
10
-121.00000000000001
20
-28.798331260680175
42
0.41421356237310375
10
-120.25
20
-29.548331260680172
10
-107.75
20
-29.548331260680165
42
0.41421356237309337
10
-107.00000000000001
20
-28.798331260680175
10
-107.00000000000001
20
-16.298331260680175
42
0.41421356237306212
10
-107.75000000000006
20
-15.548331260680177
10
-120.25
20
-15.548331260680184
42
0.41421356237311585
0
LWPOLYLINE
5
174
100
AcDbEntity
8
0
100
AcDbPolyline
90
8
70
1
43
0.0
10
-140
20
-16.298331260680175
10
-140
20
-28.798331260680175
42
0.4142135623730846
10
-139.25
20
-29.548331260680168
10
-126.75
20
-29.548331260680165
42
0.41421356237309337
10
-126.00000000000001
20
-28.798331260680175
10
-126.00000000000001
20
-16.298331260680175
42
0.41421356237308293
10
-126.75
20
-15.548331260680177
10
-139.25
20
-15.548331260680161
42
0.41421356237310375
0
LWPOLYLINE
5
175
100
AcDbEntity
8
0
100
AcDbPolyline
90
8
70
1
43
0.0
10
-159.00000000000003
20
-16.298331260680175
10
-159
20
-28.798331260680175
42
0.4142135623730846
10
-158.25
20
-29.548331260680168
10
-145.75000000000003
20
-29.548331260680175
42
0.41421356237312623
10
-145
20
-28.798331260680175
10
-145.00000000000003
20
-16.298331260680175
42
0.41421356237310281
10
-145.75
20
-15.548331260680177
10
-158.25
20
-15.548331260680182
42
0.41421356237312362
0
LWPOLYLINE
5
176
100
AcDbEntity
8
0
100
AcDbPolyline
90
8
70
1
43
0.0
10
-178
20
-16.298331260680175
10
-178
20
-28.798331260680175
42
0.41421356237309681
10
-177.25
20
-29.548331260680172
10
-164.75
20
-29.548331260680172
42
0.41421356237309681
10
-164.00000000000003
20
-28.798331260680175
10
-164
20
-16.298331260680175
42
0.41421356237316787
10
-164.75
20
-15.548331260680186
10
-177.25
20
-15.548331260680179
42
0.41421356237309681
0
LWPOLYLINE
5
177
100
AcDbEntity
8
0
100
AcDbPolyline
90
8
70
1
43
0.0
10
-196.25
20
-15.54833126068019
42
0.41421356237305079
10
-197.00000000000003
20
-16.298331260680175
10
-197.00000000000003
20
-28.798331260680175
42
0.41421356237313145
10
-196.25
20
-29.548331260680154
10
-183.75
20
-29.548331260680172
42
0.41421356237309681
10
-183
20
-28.798331260680175
10
-182.99999999999997
20
-16.298331260680175
42
0.41421356237316787
10
-183.75
20
-15.548331260680186
0
LWPOLYLINE
5
178
100
AcDbEntity
8
0
100
AcDbPolyline
90
8
70
1
43
0.0
10
-78.5
20
-35.298331260680172
42
0.41421356237309503
10
-79.25
20
-34.548331260680172
10
-91.75
20
-34.548331260680172
42
0.4142135623730846
10
-92.5
20
-35.298331260680172
10
-92.5
20
-47.798331260680172
42
0.41421356237307771
10
-91.75
20
-48.548331260680186
10
-79.25
20
-48.548331260680186
42
0.41421356237309853
10
-78.5
20
-47.798331260680172
0
LWPOLYLINE
5
179
100
AcDbEntity
8
0
100
AcDbPolyline
90
8
70
1
43
0.0
10
-216
20
-16.298331260680175
10
-216
20
-28.798331260680175
42
0.41421356237315921
10
-215.25000000000009
20
-29.54833126068019
10
-202.75000000000009
20
-29.548331260680186
42
0.41421356237304652
10
-202.00000000000003
20
-28.798331260680175
10
-202.00000000000003
20
-16.298331260680175
42
0.41421356237316442
10
-202.75000000000009
20
-15.548331260680206
10
-215.25000000000009
20
-15.54833126068019
42
0.41421356237306473
0
LWPOLYLINE
5
180
100
AcDbEntity
8
0
100
AcDbPolyline
90
8
70
1
43
0.0
10
-267.5
20
-15.54833126068019
42
0.41421356237305079
10
-268.25
20
-16.298331260680175
10
-268.25
20
-28.798331260680175
42
0.41421356237313145
10
-267.5
20
-29.548331260680154
10
-255
20
-29.548331260680172
42
0.41421356237309681
10
-254.25
20
-28.798331260680175
10
-254.24999999999997
20
-16.298331260680175
42
0.41421356237316787
10
-255
20
-15.548331260680186
0
LWPOLYLINE
5
181
100
AcDbEntity
8
0
100
AcDbPolyline
90
8
70
1
43
0.0
10
-287.25
20
-28.798331260680175
42
0.41421356237307422
10
-286.5
20
-29.548331260680175
10
-274
20
-29.548331260680154
42
0.41421356237308982
10
-273.25
20
-28.798331260680175
10
-273.25
20
-16.298331260680175
42
0.41421356237306733
10
-274
20
-15.548331260680179
10
-286.5
20
-15.548331260680161
42
0.41421356237307599
10
-287.25
20
-16.298331260680175
0
LWPOLYLINE
5
182
100
AcDbEntity
8
0
100
AcDbPolyline
90
4
70
1
43
0.0
10
-43.512982461159282
20
21.701668739319821
42
-0.99999999999999989
10
-42.012982461159282
20
21.701668739319828
10
-42.012982461159289
20
9.20166873931983
42
-0.99999999999999989
10
-43.512982461159275
20
9.2016687393198282
0
LWPOLYLINE
5
183
100
AcDbEntity
8
0
100
AcDbPolyline
90
4
70
1
43
0.0
10
-198.12548246115927
20
21.701668739319821
42
-0.99999999999999989
10
-196.62548246115929
20
21.701668739319828
10
-196.62548246115927
20
9.20166873931983
42
-0.99999999999999989
10
-198.12548246115932
20
9.2016687393198282
0
LWPOLYLINE
5
184
100
AcDbEntity
8
0
100
AcDbPolyline
90
4
70
1
43
0.0
10
-221.62548246115929
20
21.701668739319821
42
-0.99999999999999989
10
-220.12548246115929
20
21.701668739319828
10
-220.12548246115927
20
9.20166873931983
42
-0.99999999999999989
10
-221.62548246115932
20
9.2016687393198282
0
LWPOLYLINE
5
185
100
AcDbEntity
8
0
100
AcDbPolyline
90
4
70
1
43
0.0
10
-3.37548246115928
20
2.701668739319818
42
-0.99999999999999989
10
-1.8754824611592795
20
2.7016687393198269
10
-1.8754824611592791
20
-9.7983312606801718
42
-0.99999999999999989
10
-3.3754824611592804
20
-9.7983312606801736
0
LWPOLYLINE
5
186
100
AcDbEntity
8
0
100
AcDbPolyline
90
4
70
1
43
0.0
10
-26.650482461159278
20
2.701668739319818
42
-0.99999999999999989
10
-25.150482461159282
20
2.7016687393198269
10
-25.150482461159278
20
-9.7983312606801718
42
-0.99999999999999989
10
-26.650482461159282
20
-9.7983312606801736
0
LWPOLYLINE
5
187
100
AcDbEntity
8
0
100
AcDbPolyline
90
4
70
1
43
0.0
10
-206.12548246115927
20
43.701668739319821
42
-0.99999999999999989
10
-204.62548246115929
20
43.701668739319821
10
-204.62548246115927
20
31.201668739319825
42
-0.99999999999999989
10
-206.12548246115932
20
31.201668739319825
0
LWPOLYLINE
5
188
100
AcDbEntity
8
0
100
AcDbPolyline
90
4
70
1
43
0.0
10
-70.112982461159291
20
40.701668739319814
42
-0.99999999999999989
10
-68.612982461159277
20
40.701668739319828
10
-68.612982461159291
20
28.201668739319828
42
-0.99999999999999989
10
-70.112982461159277
20
28.201668739319828
0
LWPOLYLINE
5
189
100
AcDbEntity
8
0
100
AcDbPolyline
90
4
70
1
43
0.0
10
-117.61298246115928
20
40.701668739319814
42
-0.99999999999999989
10
-116.11298246115929
20
40.701668739319828
10
-116.11298246115929
20
28.201668739319828
42
-0.99999999999999989
10
-117.61298246115928
20
28.201668739319828
0
ENDSEC
0
SECTION
2
OBJECTS
0
DICTIONARY
5
C
100
AcDbDictionary
3
ACAD_GROUP
350
D
3
ACAD_MLINESTYLE
350
17
0
DICTIONARY
5
D
100
AcDbDictionary
0
DICTIONARY
5
1A
330
C
100
AcDbDictionary
0
DICTIONARY
5
17
100
AcDbDictionary
0
ENDSEC
0
EOF
